  0
SECTION
  2
HEADER
  9
$ACADVER
  1
AC1015
  9
$ACADMAINTVER
 70
     6
  9
$DWGCODEPAGE
  3
ANSI_1254
  9
$INSBASE
 10
0.0
 20
0.0
 30
0.0
  9
$EXTMIN
 10
0.0
 20
0.0
 30
0.0
  9
$EXTMAX
 10
279.4
 20
215.9
 30
0.0
  9
$LIMMIN
 10
0.0
 20
0.0
  9
$LIMMAX
 10
279.4
 20
215.9
  9
$ORTHOMODE
 70
     0
  9
$REGENMODE
 70
     1
  9
$FILLMODE
 70
     1
  9
$QTEXTMODE
 70
     0
  9
$MIRRTEXT
 70
     1
  9
$LTSCALE
 40
1.0
  9
$ATTMODE
 70
     1
  9
$TEXTSIZE
 40
3.5
  9
$TRACEWID
 40
1.0
  9
$TEXTSTYLE
  7
Standard
  9
$CLAYER
  8
0
  9
$CELTYPE
  6
ByLayer
  9
$CECOLOR
 62
   256
  9
$CELTSCALE
 40
1.0
  9
$DISPSILH
 70
     0
  9
$DIMSCALE
 40
1.0
  9
$DIMASZ
 40
3.5
  9
$DIMEXO
 40
1.0
  9
$DIMDLI
 40
3.75
  9
$DIMRND
 40
0.0
  9
$DIMDLE
 40
0.0
  9
$DIMEXE
 40
1.0
  9
$DIMTP
 40
0.0
  9
$DIMTM
 40
0.0
  9
$DIMTXT
 40
3.5
  9
$DIMCEN
 40
2.5
  9
$DIMTSZ
 40
0.0
  9
$DIMTOL
 70
     0
  9
$DIMLIM
 70
     0
  9
$DIMTIH
 70
     1
  9
$DIMTOH
 70
     1
  9
$DIMSE1
 70
     0
  9
$DIMSE2
 70
     0
  9
$DIMTAD
 70
     1
  9
$DIMZIN
 70
     0
  9
$DIMBLK
  1

  9
$DIMASO
 70
     1
  9
$DIMSHO
 70
     1
  9
$DIMPOST
  1

  9
$DIMAPOST
  1

  9
$DIMALT
 70
     0
  9
$DIMALTD
 70
     3
  9
$DIMALTF
 40
0.0393700787
  9
$DIMLFAC
 40
1.0
  9
$DIMTOFL
 70
     1
  9
$DIMTVP
 40
0.0
  9
$DIMTIX
 70
     0
  9
$DIMSOXD
 70
     0
  9
$DIMSAH
 70
     0
  9
$DIMBLK1
  1

  9
$DIMBLK2
  1

  9
$DIMSTYLE
  2
ISO-25
  9
$DIMCLRD
 70
     0
  9
$DIMCLRE
 70
     0
  9
$DIMCLRT
 70
     0
  9
$DIMTFAC
 40
1.0
  9
$DIMGAP
 40
1.524
  9
$DIMJUST
 70
     0
  9
$DIMSD1
 70
     0
  9
$DIMSD2
 70
     0
  9
$DIMTOLJ
 70
     0
  9
$DIMTZIN
 70
     0
  9
$DIMALTZ
 70
     0
  9
$DIMALTTZ
 70
     0
  9
$DIMUPT
 70
     0
  9
$DIMDEC
 70
     2
  9
$DIMTDEC
 70
     2
  9
$DIMALTU
 70
     2
  9
$DIMALTTD
 70
     3
  9
$DIMTXSTY
  7
Standard
  9
$DIMAUNIT
 70
     0
  9
$DIMADEC
 70
     2
  9
$DIMALTRND
 40
0.0
  9
$DIMAZIN
 70
     0
  9
$DIMDSEP
 70
    44
  9
$DIMATFIT
 70
     3
  9
$DIMFRAC
 70
     0
  9
$DIMLDRBLK
  1

  9
$DIMLUNIT
 70
     2
  9
$DIMLWD
 70
    -2
  9
$DIMLWE
 70
    -2
  9
$DIMTMOVE
 70
     0
  9
$LUNITS
 70
     2
  9
$LUPREC
 70
     2
  9
$SKETCHINC
 40
1.0
  9
$FILLETRAD
 40
10.0
  9
$AUNITS
 70
     0
  9
$AUPREC
 70
     2
  9
$MENU
  1
.
  9
$ELEVATION
 40
0.0
  9
$PELEVATION
 40
0.0
  9
$THICKNESS
 40
0.0
  9
$LIMCHECK
 70
     0
  9
$CHAMFERA
 40
0.0
  9
$CHAMFERB
 40
0.0
  9
$CHAMFERC
 40
0.0
  9
$CHAMFERD
 40
0.0
  9
$SKPOLY
 70
     0
  9
$TDCREATE
 40
2459741.588645278
  9
$TDUCREATE
 40
2459741.463645278
  9
$TDUPDATE
 40
2459741.588646875
  9
$TDUUPDATE
 40
2459741.463646875
  9
$TDINDWG
 40
0.0000000116
  9
$TDUSRTIMER
 40
0.0000000116
  9
$USRTIMER
 70
     1
  9
$ANGBASE
 50
0.0
  9
$ANGDIR
 70
     0
  9
$PDMODE
 70
     0
  9
$PDSIZE
 40
-1.0
  9
$PLINEWID
 40
0.0
  9
$SPLFRAME
 70
     0
  9
$SPLINETYPE
 70
     6
  9
$SPLINESEGS
 70
     8
  9
$HANDSEED
  5
11E
  9
$SURFTAB1
 70
     6
  9
$SURFTAB2
 70
     6
  9
$SURFTYPE
 70
     6
  9
$SURFU
 70
     6
  9
$SURFV
 70
     6
  9
$UCSBASE
  2

  9
$UCSNAME
  2

  9
$UCSORG
 10
0.0
 20
0.0
 30
0.0
  9
$UCSXDIR
 10
1.0
 20
0.0
 30
0.0
  9
$UCSYDIR
 10
0.0
 20
1.0
 30
0.0
  9
$UCSORTHOREF
  2

  9
$UCSORTHOVIEW
 70
     0
  9
$UCSORGTOP
 10
0.0
 20
0.0
 30
0.0
  9
$UCSORGBOTTOM
 10
0.0
 20
0.0
 30
0.0
  9
$UCSORGLEFT
 10
0.0
 20
0.0
 30
0.0
  9
$UCSORGRIGHT
 10
0.0
 20
0.0
 30
0.0
  9
$UCSORGFRONT
 10
0.0
 20
0.0
 30
0.0
  9
$UCSORGBACK
 10
0.0
 20
0.0
 30
0.0
  9
$PUCSBASE
  2

  9
$PUCSNAME
  2

  9
$PUCSORG
 10
0.0
 20
0.0
 30
0.0
  9
$PUCSXDIR
 10
1.0
 20
0.0
 30
0.0
  9
$PUCSYDIR
 10
0.0
 20
1.0
 30
0.0
  9
$PUCSORTHOREF
  2

  9
$PUCSORTHOVIEW
 70
     0
  9
$PUCSORGTOP
 10
0.0
 20
0.0
 30
0.0
  9
$PUCSORGBOTTOM
 10
0.0
 20
0.0
 30
0.0
  9
$PUCSORGLEFT
 10
0.0
 20
0.0
 30
0.0
  9
$PUCSORGRIGHT
 10
0.0
 20
0.0
 30
0.0
  9
$PUCSORGFRONT
 10
0.0
 20
0.0
 30
0.0
  9
$PUCSORGBACK
 10
0.0
 20
0.0
 30
0.0
  9
$USERI1
 70
     0
  9
$USERI2
 70
     0
  9
$USERI3
 70
     0
  9
$USERI4
 70
     0
  9
$USERI5
 70
     0
  9
$USERR1
 40
0.0
  9
$USERR2
 40
0.0
  9
$USERR3
 40
0.0
  9
$USERR4
 40
0.0
  9
$USERR5
 40
0.0
  9
$WORLDVIEW
 70
     1
  9
$SHADEDGE
 70
     3
  9
$SHADEDIF
 70
    70
  9
$TILEMODE
 70
     1
  9
$MAXACTVP
 70
    64
  9
$PINSBASE
 10
0.0
 20
0.0
 30
0.0
  9
$PLIMCHECK
 70
     0
  9
$PEXTMIN
 10
1.0000000000E+20
 20
1.0000000000E+20
 30
1.0000000000E+20
  9
$PEXTMAX
 10
-1.0000000000E+20
 20
-1.0000000000E+20
 30
-1.0000000000E+20
  9
$PLIMMIN
 10
0.0
 20
0.0
  9
$PLIMMAX
 10
420.0
 20
297.0
  9
$UNITMODE
 70
     0
  9
$VISRETAIN
 70
     1
  9
$PLINEGEN
 70
     0
  9
$PSLTSCALE
 70
     1
  9
$TREEDEPTH
 70
  3020
  9
$CMLSTYLE
  2
Standard
  9
$CMLJUST
 70
     0
  9
$CMLSCALE
 40
20.0
  9
$PROXYGRAPHICS
 70
     1
  9
$MEASUREMENT
 70
     1
  9
$CELWEIGHT
370
    -1
  9
$ENDCAPS
280
     0
  9
$JOINSTYLE
280
     0
  9
$LWDISPLAY
290
     1
  9
$INSUNITS
 70
     4
  9
$HYPERLINKBASE
  1

  9
$STYLESHEET
  1

  9
$XEDIT
290
     1
  9
$CEPSNTYPE
380
     0
  9
$PSTYLEMODE
290
     1
  9
$FINGERPRINTGUID
  2
{8f4bdda0-6a6f-4507-919f-05280761a37d}
  9
$VERSIONGUID
  2
{FAEB1C32-E019-11D5-929B-00C0DF256EC4}
  9
$EXTNAMES
290
     1
  9
$PSVPSCALE
 40
0.0
  9
$OLESTARTUP
290
     0
  0
ENDSEC
  0
SECTION
  2
CLASSES
  0
CLASS
  1
ACDBDICTIONARYWDFLT
  2
AcDbDictionaryWithDefault
  3
ObjectDBX Classes
 90
        0
280
     0
281
     0
  0
CLASS
  1
VISUALSTYLE
  2
AcDbVisualStyle
  3
ObjectDBX Classes
 90
     4095
280
     0
281
     0
  0
CLASS
  1
MATERIAL
  2
AcDbMaterial
  3
ObjectDBX Classes
 90
     1153
280
     0
281
     0
  0
CLASS
  1
SCALE
  2
AcDbScale
  3
ObjectDBX Classes
 90
     1153
280
     0
281
     0
  0
CLASS
  1
TABLESTYLE
  2
AcDbTableStyle
  3
ObjectDBX Classes
 90
     4095
280
     0
281
     0
  0
CLASS
  1
MLEADERSTYLE
  2
AcDbMLeaderStyle
  3
ACDB_MLEADERSTYLE_CLASS
 90
     4095
280
     0
281
     0
  0
CLASS
  1
SUN
  2
AcDbSun
  3
SCENEOE
 90
     1153
280
     0
281
     0
  0
CLASS
  1
ACDBPLACEHOLDER
  2
AcDbPlaceHolder
  3
ObjectDBX Classes
 90
        0
280
     0
281
     0
  0
CLASS
  1
LAYOUT
  2
AcDbLayout
  3
ObjectDBX Classes
 90
        0
280
     0
281
     0
  0
ENDSEC
  0
SECTION
  2
TABLES
  0
TABLE
  2
VPORT
  5
8
330
0
100
AcDbSymbolTable
 70
     1
  0
VPORT
  5
29
330
8
100
AcDbSymbolTableRecord
100
AcDbViewportTableRecord
  2
*Active
 70
     0
 10
0.0
 20
0.0
 11
1.0
 21
1.0
 12
139.7
 22
107.95
 13
0.0
 23
0.0
 14
10.0
 24
10.0
 15
10.0
 25
10.0
 16
0.0
 26
0.0
 36
1.0
 17
0.0
 27
0.0
 37
0.0
 40
215.9
 41
1.2941176471
 42
50.0
 43
0.0
 44
0.0
 50
0.0
 51
0.0
 71
     0
 72
  2000
 73
     1
 74
     3
 75
     0
 76
     0
 77
     0
 78
     0
281
     0
 65
     1
110
0.0
120
0.0
130
0.0
111
1.0
121
0.0
131
0.0
112
0.0
122
1.0
132
0.0
 79
     0
146
0.0
  0
ENDTAB
  0
TABLE
  2
LTYPE
  5
5
330
0
100
AcDbSymbolTable
 70
     6
  0
LTYPE
  5
14
330
5
100
AcDbSymbolTableRecord
100
AcDbLinetypeTableRecord
  2
ByBlock
 70
     0
  3

 72
    65
 73
     0
 40
0.0
  0
LTYPE
  5
15
330
5
100
AcDbSymbolTableRecord
100
AcDbLinetypeTableRecord
  2
ByLayer
 70
     0
  3

 72
    65
 73
     0
 40
0.0
  0
LTYPE
  5
16
330
5
100
AcDbSymbolTableRecord
100
AcDbLinetypeTableRecord
  2
Continuous
 70
     0
  3
Solid line
 72
    65
 73
     0
 40
0.0
  0
LTYPE
  5
6E
330
5
100
AcDbSymbolTableRecord
100
AcDbLinetypeTableRecord
  2
HIDDEN
 70
     0
  3
Hidden __ __ __ __ __ __ __ __ __ __ __ __ __ __
 72
    65
 73
     2
 40
1.905
 49
1.27
 74
     0
 49
-0.635
 74
     0
  0
LTYPE
  5
6F
330
5
100
AcDbSymbolTableRecord
100
AcDbLinetypeTableRecord
  2
PHANTOM
 70
     0
  3
Phantom ______  __  __  ______  __  __  ______
 72
    65
 73
     6
 40
12.7
 49
6.35
 74
     0
 49
-1.27
 74
     0
 49
1.27
 74
     0
 49
-1.27
 74
     0
 49
1.27
 74
     0
 49
-1.27
 74
     0
  0
LTYPE
  5
70
330
5
100
AcDbSymbolTableRecord
100
AcDbLinetypeTableRecord
  2
CENTER
 70
     0
  3
Center ____ _ ____ _ ____ _ ____ _ ____ _ ____
 72
    65
 73
     4
 40
10.16
 49
6.35
 74
     0
 49
-1.27
 74
     0
 49
1.27
 74
     0
 49
-1.27
 74
     0
  0
LTYPE
  5
71
330
5
100
AcDbSymbolTableRecord
100
AcDbLinetypeTableRecord
  2
CENTERX2
 70
     0
  3
Center (2x) ________  __  ________  __  _____
 72
    65
 73
     4
 40
20.32
 49
12.7
 74
     0
 49
-2.54
 74
     0
 49
2.54
 74
     0
 49
-2.54
 74
     0
  0
LTYPE
  5
72
330
5
100
AcDbSymbolTableRecord
100
AcDbLinetypeTableRecord
  2
DOT2
 70
     0
  3
Dot (.5x) ........................................
 72
    65
 73
     2
 40
0.635
 49
0.0
 74
     0
 49
-0.635
 74
     0
  0
ENDTAB
  0
TABLE
  2
LAYER
  5
2
330
0
100
AcDbSymbolTable
 70
    17
  0
LAYER
  5
10
330
2
100
AcDbSymbolTableRecord
100
AcDbLayerTableRecord
  2
0
 70
     0
 62
     7
  6
Continuous
370
    -3
390
F
  0
LAYER
  5
73
330
2
100
AcDbSymbolTableRecord
100
AcDbLayerTableRecord
  2
FORMAT
 70
     0
 62
     7
  6
Continuous
370
    -3
390
F
  0
LAYER
  5
74
330
2
100
AcDbSymbolTableRecord
100
AcDbLayerTableRecord
  2
YARDIMCI_GEOMETRI
 70
     0
 62
    -6
  6
Continuous
290
     0
370
    -3
390
F
  0
LAYER
  5
75
330
2
100
AcDbSymbolTableRecord
100
AcDbLayerTableRecord
  2
SAYFA_CERCEVESI
 70
     0
 62
     7
  6
Continuous
370
    25
390
F
  0
LAYER
  5
76
330
2
100
AcDbSymbolTableRecord
100
AcDbLayerTableRecord
  2
ANTET
 70
     0
 62
     7
  6
Continuous
370
    -3
390
F
  0
LAYER
  5
77
330
2
100
AcDbSymbolTableRecord
100
AcDbLayerTableRecord
  2
OLCU
 70
     0
 62
   150
  6
Continuous
370
    -3
390
F
  0
LAYER
  5
78
330
2
100
AcDbSymbolTableRecord
100
AcDbLayerTableRecord
  2
METIN
 70
     0
 62
    96
  6
Continuous
370
    -3
390
F
  0
LAYER
  5
79
330
2
100
AcDbSymbolTableRecord
100
AcDbLayerTableRecord
  2
BALON
 70
     0
 62
     5
  6
Continuous
370
    -3
390
F
  0
LAYER
  5
7A
330
2
100
AcDbSymbolTableRecord
100
AcDbLayerTableRecord
  2
VURGU
 70
     0
 62
     7
  6
Continuous
370
    -3
390
F
  0
LAYER
  5
7B
330
2
100
AcDbSymbolTableRecord
100
AcDbLayerTableRecord
  2
SILIK
 70
     0
 62
     7
  6
Continuous
370
    -3
390
F
  0
LAYER
  5
7C
330
2
100
AcDbSymbolTableRecord
100
AcDbLayerTableRecord
  2
MODEL
 70
     0
 62
     7
  6
Continuous
370
    -3
390
F
  0
LAYER
  5
7D
330
2
100
AcDbSymbolTableRecord
100
AcDbLayerTableRecord
  2
DETAYLANDıRMA
 70
     0
 62
   190
  6
Continuous
370
    -3
390
F
  0
LAYER
  5
7E
330
2
100
AcDbSymbolTableRecord
100
AcDbLayerTableRecord
  2
TOLERANS
 70
     0
 62
   230
  6
Continuous
370
    -3
390
F
  0
LAYER
  5
7F
330
2
100
AcDbSymbolTableRecord
100
AcDbLayerTableRecord
  2
MERKEZ_CIZGILERI
 70
     0
 62
    30
  6
Continuous
370
    -3
390
F
  0
LAYER
  5
80
330
2
100
AcDbSymbolTableRecord
100
AcDbLayerTableRecord
  2
KESIT-DETAY_CIZGILERI
 70
     0
 62
     7
  6
Continuous
370
    -3
390
F
  0
LAYER
  5
81
330
2
100
AcDbSymbolTableRecord
100
AcDbLayerTableRecord
  2
\U+041E\U+0421\U+0415\U+0412\U+042B\U+0415
 70
     0
 62
     7
  6
Continuous
370
    -3
390
F
  0
LAYER
  5
82
330
2
100
AcDbSymbolTableRecord
100
AcDbLayerTableRecord
  2
\U+0412\U+041E\U+0414\U+042F\U+041D\U+042B\U+0415_\U+0417\U+041D\U+0410\U+041A\U+0418
 70
     0
 62
    11
  6
Continuous
370
    -3
390
F
  0
ENDTAB
  0
TABLE
  2
STYLE
  5
3
330
0
100
AcDbSymbolTable
 70
     1
  0
STYLE
  5
11
330
3
100
AcDbSymbolTableRecord
100
AcDbTextStyleTableRecord
  2
Standard
 70
     0
 40
0.0
 41
1.0
 50
0.0
 71
     0
 42
3.5
  3
txt
  4

  0
ENDTAB
  0
TABLE
  2
VIEW
  5
6
330
0
100
AcDbSymbolTable
 70
     0
  0
ENDTAB
  0
TABLE
  2
UCS
  5
7
330
0
100
AcDbSymbolTable
 70
     0
  0
ENDTAB
  0
TABLE
  2
APPID
  5
9
330
0
100
AcDbSymbolTable
 70
     1
  0
APPID
  5
12
330
9
100
AcDbSymbolTableRecord
100
AcDbRegAppTableRecord
  2
ACAD
 70
     0
  0
ENDTAB
  0
TABLE
  2
DIMSTYLE
  5
A
330
0
100
AcDbSymbolTable
 70
     1
100
AcDbDimStyleTable
  0
DIMSTYLE
105
27
330
A
100
AcDbSymbolTableRecord
100
AcDbDimStyleTableRecord
  2
ISO-25
 70
     0
 41
2.5
 42
0.625
 43
3.75
 44
1.25
 73
     0
 74
     0
 77
     1
 78
     8
140
2.5
141
2.5
143
0.0393700787
147
0.625
171
     3
172
     1
178
     0
271
     2
272
     2
274
     3
278
    44
283
     0
284
     8
340
11
  0
ENDTAB
  0
TABLE
  2
BLOCK_RECORD
  5
1
330
0
100
AcDbSymbolTable
 70
     6
  0
BLOCK_RECORD
  5
1F
330
1
100
AcDbSymbolTableRecord
100
AcDbBlockTableRecord
  2
*Model_Space
340
22
  0
BLOCK_RECORD
  5
1B
330
1
100
AcDbSymbolTableRecord
100
AcDbBlockTableRecord
  2
*Paper_Space
340
1E
  0
BLOCK_RECORD
  5
23
330
1
100
AcDbSymbolTableRecord
100
AcDbBlockTableRecord
  2
*Paper_Space0
340
26
  0
BLOCK_RECORD
  5
8F
330
1
100
AcDbSymbolTableRecord
100
AcDbBlockTableRecord
  2
SW_CENTERMARKSYMBOL_0
340
0
102
{BLKREFS
331
9A
102
}
  0
BLOCK_RECORD
  5
9B
330
1
100
AcDbSymbolTableRecord
100
AcDbBlockTableRecord
  2
SW_CENTERMARKSYMBOL_1
340
0
102
{BLKREFS
331
A6
102
}
  0
BLOCK_RECORD
  5
A7
330
1
100
AcDbSymbolTableRecord
100
AcDbBlockTableRecord
  2
SW_CENTERMARKSYMBOL_2
340
0
102
{BLKREFS
331
B2
102
}
  0
BLOCK_RECORD
  5
B3
330
1
100
AcDbSymbolTableRecord
100
AcDbBlockTableRecord
  2
SW_CENTERMARKSYMBOL_3
340
0
102
{BLKREFS
331
BE
102
}
  0
BLOCK_RECORD
  5
BF
330
1
100
AcDbSymbolTableRecord
100
AcDbBlockTableRecord
  2
SW_CENTERMARKSYMBOL_4
340
0
102
{BLKREFS
331
CA
102
}
  0
ENDTAB
  0
ENDSEC
  0
SECTION
  2
BLOCKS
  0
BLOCK
  5
20
330
1F
100
AcDbEntity
  8
0
100
AcDbBlockBegin
  2
*Model_Space
 70
     0
 10
0.0
 20
0.0
 30
0.0
  3
*Model_Space
  1

  0
ENDBLK
  5
21
330
1F
100
AcDbEntity
  8
0
100
AcDbBlockEnd
  0
BLOCK
  5
1C
330
1B
100
AcDbEntity
 67
     1
  8
0
100
AcDbBlockBegin
  2
*Paper_Space
 70
     0
 10
0.0
 20
0.0
 30
0.0
  3
*Paper_Space
  1

  0
ENDBLK
  5
1D
330
1B
100
AcDbEntity
 67
     1
  8
0
100
AcDbBlockEnd
  0
BLOCK
  5
24
330
23
100
AcDbEntity
  8
0
100
AcDbBlockBegin
  2
*Paper_Space0
 70
     0
 10
0.0
 20
0.0
 30
0.0
  3
*Paper_Space0
  1

  0
ENDBLK
  5
25
330
23
100
AcDbEntity
  8
0
100
AcDbBlockEnd
  0
BLOCK
  5
90
330
8F
100
AcDbEntity
  8
0
100
AcDbBlockBegin
  2
SW_CENTERMARKSYMBOL_0
 70
     0
 10
0.0
 20
0.0
 30
0.0
  3
SW_CENTERMARKSYMBOL_0
  1

  0
LINE
  5
92
330
8F
100
AcDbEntity
  8
FORMAT
 62
     0
100
AcDbLine
 10
0.0
 20
0.0
 30
0.0
 11
0.0
 21
2.5
 31
0.0
  0
LINE
  5
93
330
8F
100
AcDbEntity
  8
FORMAT
 62
     0
100
AcDbLine
 10
0.0
 20
0.0
 30
0.0
 11
-2.5
 21
0.0
 31
0.0
  0
LINE
  5
94
330
8F
100
AcDbEntity
  8
FORMAT
 62
     0
100
AcDbLine
 10
0.0
 20
0.0
 30
0.0
 11
0.0
 21
-2.5
 31
0.0
  0
LINE
  5
95
330
8F
100
AcDbEntity
  8
FORMAT
 62
     0
100
AcDbLine
 10
0.0
 20
0.0
 30
0.0
 11
2.5
 21
0.0
 31
0.0
  0
LINE
  5
96
330
8F
100
AcDbEntity
  8
FORMAT
 62
     0
100
AcDbLine
 10
0.0
 20
5.0
 30
0.0
 11
0.0
 21
69.0
 31
0.0
  0
LINE
  5
97
330
8F
100
AcDbEntity
  8
FORMAT
 62
     0
100
AcDbLine
 10
-5.0
 20
0.0
 30
0.0
 11
-69.0
 21
0.0
 31
0.0
  0
LINE
  5
98
330
8F
100
AcDbEntity
  8
FORMAT
 62
     0
100
AcDbLine
 10
0.0
 20
-5.0
 30
0.0
 11
0.0
 21
-69.0
 31
0.0
  0
LINE
  5
99
330
8F
100
AcDbEntity
  8
FORMAT
 62
     0
100
AcDbLine
 10
5.0
 20
0.0
 30
0.0
 11
69.0
 21
0.0
 31
0.0
  0
ENDBLK
  5
91
330
8F
100
AcDbEntity
  8
0
100
AcDbBlockEnd
  0
BLOCK
  5
9C
330
9B
100
AcDbEntity
  8
0
100
AcDbBlockBegin
  2
SW_CENTERMARKSYMBOL_1
 70
     0
 10
0.0
 20
0.0
 30
0.0
  3
SW_CENTERMARKSYMBOL_1
  1

  0
LINE
  5
9E
330
9B
100
AcDbEntity
  8
FORMAT
 62
     0
100
AcDbLine
 10
0.0
 20
0.0
 30
0.0
 11
0.0
 21
2.5
 31
0.0
  0
LINE
  5
9F
330
9B
100
AcDbEntity
  8
FORMAT
 62
     0
100
AcDbLine
 10
0.0
 20
0.0
 30
0.0
 11
-2.5
 21
0.0
 31
0.0
  0
LINE
  5
A0
330
9B
100
AcDbEntity
  8
FORMAT
 62
     0
100
AcDbLine
 10
0.0
 20
0.0
 30
0.0
 11
0.0
 21
-2.5
 31
0.0
  0
LINE
  5
A1
330
9B
100
AcDbEntity
  8
FORMAT
 62
     0
100
AcDbLine
 10
0.0
 20
0.0
 30
0.0
 11
2.5
 21
0.0
 31
0.0
  0
LINE
  5
A2
330
9B
100
AcDbEntity
  8
FORMAT
 62
     0
100
AcDbLine
 10
0.0
 20
5.0
 30
0.0
 11
0.0
 21
10.5
 31
0.0
  0
LINE
  5
A3
330
9B
100
AcDbEntity
  8
FORMAT
 62
     0
100
AcDbLine
 10
-5.0
 20
0.0
 30
0.0
 11
-10.5
 21
0.0
 31
0.0
  0
LINE
  5
A4
330
9B
100
AcDbEntity
  8
FORMAT
 62
     0
100
AcDbLine
 10
0.0
 20
-5.0
 30
0.0
 11
0.0
 21
-10.5
 31
0.0
  0
LINE
  5
A5
330
9B
100
AcDbEntity
  8
FORMAT
 62
     0
100
AcDbLine
 10
5.0
 20
0.0
 30
0.0
 11
10.5
 21
0.0
 31
0.0
  0
ENDBLK
  5
9D
330
9B
100
AcDbEntity
  8
0
100
AcDbBlockEnd
  0
BLOCK
  5
A8
330
A7
100
AcDbEntity
  8
0
100
AcDbBlockBegin
  2
SW_CENTERMARKSYMBOL_2
 70
     0
 10
0.0
 20
0.0
 30
0.0
  3
SW_CENTERMARKSYMBOL_2
  1

  0
LINE
  5
AA
330
A7
100
AcDbEntity
  8
FORMAT
 62
     0
100
AcDbLine
 10
0.0
 20
0.0
 30
0.0
 11
0.0
 21
2.5
 31
0.0
  0
LINE
  5
AB
330
A7
100
AcDbEntity
  8
FORMAT
 62
     0
100
AcDbLine
 10
0.0
 20
0.0
 30
0.0
 11
-2.5
 21
0.0
 31
0.0
  0
LINE
  5
AC
330
A7
100
AcDbEntity
  8
FORMAT
 62
     0
100
AcDbLine
 10
0.0
 20
0.0
 30
0.0
 11
0.0
 21
-2.5
 31
0.0
  0
LINE
  5
AD
330
A7
100
AcDbEntity
  8
FORMAT
 62
     0
100
AcDbLine
 10
0.0
 20
0.0
 30
0.0
 11
2.5
 21
0.0
 31
0.0
  0
LINE
  5
AE
330
A7
100
AcDbEntity
  8
FORMAT
 62
     0
100
AcDbLine
 10
0.0
 20
5.0
 30
0.0
 11
0.0
 21
10.5
 31
0.0
  0
LINE
  5
AF
330
A7
100
AcDbEntity
  8
FORMAT
 62
     0
100
AcDbLine
 10
-5.0
 20
0.0
 30
0.0
 11
-10.5
 21
0.0
 31
0.0
  0
LINE
  5
B0
330
A7
100
AcDbEntity
  8
FORMAT
 62
     0
100
AcDbLine
 10
0.0
 20
-5.0
 30
0.0
 11
0.0
 21
-10.5
 31
0.0
  0
LINE
  5
B1
330
A7
100
AcDbEntity
  8
FORMAT
 62
     0
100
AcDbLine
 10
5.0
 20
0.0
 30
0.0
 11
10.5
 21
0.0
 31
0.0
  0
ENDBLK
  5
A9
330
A7
100
AcDbEntity
  8
0
100
AcDbBlockEnd
  0
BLOCK
  5
B4
330
B3
100
AcDbEntity
  8
0
100
AcDbBlockBegin
  2
SW_CENTERMARKSYMBOL_3
 70
     0
 10
0.0
 20
0.0
 30
0.0
  3
SW_CENTERMARKSYMBOL_3
  1

  0
LINE
  5
B6
330
B3
100
AcDbEntity
  8
FORMAT
 62
     0
100
AcDbLine
 10
0.0
 20
0.0
 30
0.0
 11
0.0
 21
2.5
 31
0.0
  0
LINE
  5
B7
330
B3
100
AcDbEntity
  8
FORMAT
 62
     0
100
AcDbLine
 10
0.0
 20
0.0
 30
0.0
 11
-2.5
 21
0.0
 31
0.0
  0
LINE
  5
B8
330
B3
100
AcDbEntity
  8
FORMAT
 62
     0
100
AcDbLine
 10
0.0
 20
0.0
 30
0.0
 11
0.0
 21
-2.5
 31
0.0
  0
LINE
  5
B9
330
B3
100
AcDbEntity
  8
FORMAT
 62
     0
100
AcDbLine
 10
0.0
 20
0.0
 30
0.0
 11
2.5
 21
0.0
 31
0.0
  0
LINE
  5
BA
330
B3
100
AcDbEntity
  8
FORMAT
 62
     0
100
AcDbLine
 10
0.0
 20
5.0
 30
0.0
 11
0.0
 21
10.5
 31
0.0
  0
LINE
  5
BB
330
B3
100
AcDbEntity
  8
FORMAT
 62
     0
100
AcDbLine
 10
-5.0
 20
0.0
 30
0.0
 11
-10.5
 21
0.0
 31
0.0
  0
LINE
  5
BC
330
B3
100
AcDbEntity
  8
FORMAT
 62
     0
100
AcDbLine
 10
0.0
 20
-5.0
 30
0.0
 11
0.0
 21
-10.5
 31
0.0
  0
LINE
  5
BD
330
B3
100
AcDbEntity
  8
FORMAT
 62
     0
100
AcDbLine
 10
5.0
 20
0.0
 30
0.0
 11
10.5
 21
0.0
 31
0.0
  0
ENDBLK
  5
B5
330
B3
100
AcDbEntity
  8
0
100
AcDbBlockEnd
  0
BLOCK
  5
C0
330
BF
100
AcDbEntity
  8
0
100
AcDbBlockBegin
  2
SW_CENTERMARKSYMBOL_4
 70
     0
 10
0.0
 20
0.0
 30
0.0
  3
SW_CENTERMARKSYMBOL_4
  1

  0
LINE
  5
C2
330
BF
100
AcDbEntity
  8
FORMAT
 62
     0
100
AcDbLine
 10
0.0
 20
0.0
 30
0.0
 11
0.0
 21
2.5
 31
0.0
  0
LINE
  5
C3
330
BF
100
AcDbEntity
  8
FORMAT
 62
     0
100
AcDbLine
 10
0.0
 20
0.0
 30
0.0
 11
-2.5
 21
0.0
 31
0.0
  0
LINE
  5
C4
330
BF
100
AcDbEntity
  8
FORMAT
 62
     0
100
AcDbLine
 10
0.0
 20
0.0
 30
0.0
 11
0.0
 21
-2.5
 31
0.0
  0
LINE
  5
C5
330
BF
100
AcDbEntity
  8
FORMAT
 62
     0
100
AcDbLine
 10
0.0
 20
0.0
 30
0.0
 11
2.5
 21
0.0
 31
0.0
  0
LINE
  5
C6
330
BF
100
AcDbEntity
  8
FORMAT
 62
     0
100
AcDbLine
 10
0.0
 20
5.0
 30
0.0
 11
0.0
 21
10.5
 31
0.0
  0
LINE
  5
C7
330
BF
100
AcDbEntity
  8
FORMAT
 62
     0
100
AcDbLine
 10
-5.0
 20
0.0
 30
0.0
 11
-10.5
 21
0.0
 31
0.0
  0
LINE
  5
C8
330
BF
100
AcDbEntity
  8
FORMAT
 62
     0
100
AcDbLine
 10
0.0
 20
-5.0
 30
0.0
 11
0.0
 21
-10.5
 31
0.0
  0
LINE
  5
C9
330
BF
100
AcDbEntity
  8
FORMAT
 62
     0
100
AcDbLine
 10
5.0
 20
0.0
 30
0.0
 11
10.5
 21
0.0
 31
0.0
  0
ENDBLK
  5
C1
330
BF
100
AcDbEntity
  8
0
100
AcDbBlockEnd
  0
ENDSEC
  0
SECTION
  2
ENTITIES
  0
CIRCLE
  5
83
330
1F
100
AcDbEntity
  8
0
  6
Continuous
 62
     7
370
    25
100
AcDbCircle
 10
137.8667640332
 20
54.2638469371
 30
0.0
 40
9.0
  0
CIRCLE
  5
84
330
1F
100
AcDbEntity
  8
0
  6
Continuous
 62
     7
370
    25
100
AcDbCircle
 10
137.8667640332
 20
152.8638469371
 30
0.0
 40
9.0
  0
CIRCLE
  5
85
330
1F
100
AcDbEntity
  8
0
  6
Continuous
 62
     7
370
    25
100
AcDbCircle
 10
137.8667640332
 20
103.5638469371
 30
0.0
 40
65.5
  0
CIRCLE
  5
86
330
1F
100
AcDbEntity
  8
0
  6
Continuous
 62
     7
370
    25
100
AcDbCircle
 10
137.8667640332
 20
103.5638469371
 30
0.0
 40
32.0
  0
CIRCLE
  5
87
330
1F
100
AcDbEntity
  8
0
  6
Continuous
 62
     7
370
    25
100
AcDbCircle
 10
187.1667640332
 20
103.5638469371
 30
0.0
 40
9.0
  0
CIRCLE
  5
88
330
1F
100
AcDbEntity
  8
0
  6
Continuous
 62
     7
370
    25
100
AcDbCircle
 10
88.5667640332
 20
103.5638469371
 30
0.0
 40
9.0
  0
CIRCLE
  5
89
330
1F
100
AcDbEntity
  8
0
  6
Continuous
 62
     7
370
    25
100
AcDbCircle
 10
137.8667640332
 20
103.5638469371
 30
0.0
 40
31.0
  0
CIRCLE
  5
8A
330
1F
100
AcDbEntity
  8
0
  6
Continuous
 62
     7
370
    25
100
AcDbCircle
 10
137.8667640332
 20
103.5638469371
 30
0.0
 40
66.5
  0
CIRCLE
  5
8B
330
1F
100
AcDbEntity
  8
0
  6
Continuous
 62
     7
370
    25
100
AcDbCircle
 10
137.8667640332
 20
152.8638469371
 30
0.0
 40
8.0
  0
CIRCLE
  5
8C
330
1F
100
AcDbEntity
  8
0
  6
Continuous
 62
     7
370
    25
100
AcDbCircle
 10
88.5667640332
 20
103.5638469371
 30
0.0
 40
8.000000000000014
  0
CIRCLE
  5
8D
330
1F
100
AcDbEntity
  8
0
  6
Continuous
 62
     7
370
    25
100
AcDbCircle
 10
187.1667640332
 20
103.5638469371
 30
0.0
 40
8.0
  0
CIRCLE
  5
8E
330
1F
100
AcDbEntity
  8
0
  6
Continuous
 62
     7
370
    25
100
AcDbCircle
 10
137.8667640332
 20
54.2638469371
 30
0.0
 40
8.0
  0
INSERT
  5
9A
330
1F
100
AcDbEntity
  8
FORMAT
 62
     7
100
AcDbBlockReference
  2
SW_CENTERMARKSYMBOL_0
 10
137.8667640332
 20
103.5638469371
 30
0.0
  0
INSERT
  5
A6
330
1F
100
AcDbEntity
  8
FORMAT
 62
     7
100
AcDbBlockReference
  2
SW_CENTERMARKSYMBOL_1
 10
137.8667640332
 20
152.8638469371
 30
0.0
  0
INSERT
  5
B2
330
1F
100
AcDbEntity
  8
FORMAT
 62
     7
100
AcDbBlockReference
  2
SW_CENTERMARKSYMBOL_2
 10
187.1667640332
 20
103.5638469371
 30
0.0
  0
INSERT
  5
BE
330
1F
100
AcDbEntity
  8
FORMAT
 62
     7
100
AcDbBlockReference
  2
SW_CENTERMARKSYMBOL_3
 10
137.8667640332
 20
54.2638469371
 30
0.0
  0
INSERT
  5
CA
330
1F
100
AcDbEntity
  8
FORMAT
 62
     7
100
AcDbBlockReference
  2
SW_CENTERMARKSYMBOL_4
 10
88.5667640332
 20
103.5638469371
 30
0.0
  0
LINE
  5
CB
330
1F
100
AcDbEntity
  8
0
  6
Continuous
 62
     7
370
    25
100
AcDbLine
 10
-20.5275699655
 20
170.0638469371
 30
0.0
 11
-36.5275699655
 21
170.0638469371
 31
0.0
  0
LINE
  5
CC
330
1F
100
AcDbEntity
  8
0
  6
Continuous
 62
     7
370
    25
100
AcDbLine
 10
-36.5275699655
 20
37.0638469371
 30
0.0
 11
-20.5275699655
 21
37.0638469371
 31
0.0
  0
ARC
  5
CD
330
1F
100
AcDbEntity
  8
0
  6
Continuous
 62
     7
370
    25
100
AcDbCircle
 10
-20.5275699655
 20
38.0638469371
 30
0.0
 40
1.0
100
AcDbArc
 50
270.0
 51
0.0
  0
ARC
  5
CE
330
1F
100
AcDbEntity
  8
0
  6
Continuous
 62
     7
370
    25
100
AcDbCircle
 10
-20.5275699655
 20
169.0638469371
 30
0.0
 40
1.0
100
AcDbArc
 50
0.0
 51
90.0
  0
ARC
  5
CF
330
1F
100
AcDbEntity
  8
0
  6
Continuous
 62
     7
370
    25
100
AcDbCircle
 10
-36.5275699655
 20
38.0638469371
 30
0.0
 40
1.000000000000007
100
AcDbArc
 50
180.0
 51
270.0
  0
ARC
  5
D0
330
1F
100
AcDbEntity
  8
0
  6
Continuous
 62
     7
370
    25
100
AcDbCircle
 10
-36.5275699655
 20
169.0638469371
 30
0.0
 40
1.000000000000007
100
AcDbArc
 50
90.0
 51
180.0
  0
LINE
  5
D1
330
1F
100
AcDbEntity
  8
0
  6
Continuous
 62
     7
370
    25
100
AcDbLine
 10
-19.5275699655
 20
103.5638469371
 30
0.0
 11
-19.5275699655
 21
38.0638469371
 31
0.0
  0
LINE
  5
D2
330
1F
100
AcDbEntity
  8
0
  6
Continuous
 62
     7
370
    25
100
AcDbLine
 10
-19.5275699655
 20
169.0638469371
 30
0.0
 11
-19.5275699655
 21
103.5638469371
 31
0.0
  0
LINE
  5
D3
330
1F
100
AcDbEntity
  8
0
  6
Continuous
 62
     7
370
    25
100
AcDbLine
 10
-37.5275699655
 20
103.5638469371
 30
0.0
 11
-37.5275699655
 21
169.0638469371
 31
0.0
  0
LINE
  5
D4
330
1F
100
AcDbEntity
  8
0
  6
Continuous
 62
     7
370
    25
100
AcDbLine
 10
-37.5275699655
 20
38.0638469371
 30
0.0
 11
-37.5275699655
 21
103.5638469371
 31
0.0
  0
LINE
  5
D5
330
1F
100
AcDbEntity
  8
0
  6
Continuous
 62
     1
370
    25
100
AcDbLine
 10
-36.5275699655
 20
103.5638469371
 30
0.0
 11
-36.5275699655
 21
37.0638469371
 31
0.0
  0
LINE
  5
D6
330
1F
100
AcDbEntity
  8
0
  6
Continuous
 62
     1
370
    25
100
AcDbLine
 10
-36.5275699655
 20
170.0638469371
 30
0.0
 11
-36.5275699655
 21
103.5638469371
 31
0.0
  0
LINE
  5
D7
330
1F
100
AcDbEntity
  8
0
  6
Continuous
 62
     1
370
    25
100
AcDbLine
 10
-20.5275699655
 20
103.5638469371
 30
0.0
 11
-20.5275699655
 21
170.0638469371
 31
0.0
  0
LINE
  5
D8
330
1F
100
AcDbEntity
  8
0
  6
Continuous
 62
     1
370
    25
100
AcDbLine
 10
-20.5275699655
 20
37.0638469371
 30
0.0
 11
-20.5275699655
 21
103.5638469371
 31
0.0
  0
LINE
  5
D9
330
1F
100
AcDbEntity
  8
0
  6
Continuous
 62
     7
370
    25
100
AcDbLine
 10
297.8376582236
 20
37.0638469371
 30
0.0
 11
313.8376582236
 21
37.0638469371
 31
0.0
  0
LINE
  5
DA
330
1F
100
AcDbEntity
  8
0
  6
Continuous
 62
     7
370
    25
100
AcDbLine
 10
313.8376582236
 20
170.0638469371
 30
0.0
 11
297.8376582236
 21
170.0638469371
 31
0.0
  0
ARC
  5
DB
330
1F
100
AcDbEntity
  8
0
  6
Continuous
 62
     7
370
    25
100
AcDbCircle
 10
297.8376582236
 20
169.0638469371
 30
0.0
 40
1.0
100
AcDbArc
 50
90.0
 51
180.0
  0
ARC
  5
DC
330
1F
100
AcDbEntity
  8
0
  6
Continuous
 62
     7
370
    25
100
AcDbCircle
 10
297.8376582236
 20
38.0638469371
 30
0.0
 40
1.0
100
AcDbArc
 50
180.0
 51
270.0
  0
ARC
  5
DD
330
1F
100
AcDbEntity
  8
0
  6
Continuous
 62
     7
370
    25
100
AcDbCircle
 10
313.8376582236
 20
169.0638469371
 30
0.0
 40
1.0
100
AcDbArc
 50
0.0
 51
90.0
  0
ARC
  5
DE
330
1F
100
AcDbEntity
  8
0
  6
Continuous
 62
     7
370
    25
100
AcDbCircle
 10
313.8376582236
 20
38.0638469371
 30
0.0
 40
1.0
100
AcDbArc
 50
270.0
 51
0.0
  0
LINE
  5
DF
330
1F
100
AcDbEntity
  8
0
  6
Continuous
 62
     7
370
    25
100
AcDbLine
 10
296.8376582236
 20
38.0638469371
 30
0.0
 11
296.8376582236
 21
169.0638469371
 31
0.0
  0
LINE
  5
E0
330
1F
100
AcDbEntity
  8
0
  6
Continuous
 62
     7
370
    25
100
AcDbLine
 10
314.8376582236
 20
169.0638469371
 30
0.0
 11
314.8376582236
 21
38.0638469371
 31
0.0
  0
LINE
  5
E1
330
1F
100
AcDbEntity
  8
0
  6
Continuous
 62
     1
370
    25
100
AcDbLine
 10
313.8376582236
 20
37.0638469371
 30
0.0
 11
313.8376582236
 21
170.0638469371
 31
0.0
  0
LINE
  5
E2
330
1F
100
AcDbEntity
  8
0
  6
Continuous
 62
     1
370
    25
100
AcDbLine
 10
297.8376582236
 20
170.0638469371
 30
0.0
 11
297.8376582236
 21
37.0638469371
 31
0.0
  0
LINE
  5
E3
330
1F
100
AcDbEntity
  8
0
  6
Continuous
 62
     7
370
    25
100
AcDbLine
 10
204.3667640332
 20
263.7269415153
 30
0.0
 11
204.3667640332
 21
279.7269415153
 31
0.0
  0
LINE
  5
E4
330
1F
100
AcDbEntity
  8
0
  6
Continuous
 62
     7
370
    25
100
AcDbLine
 10
71.3667640332
 20
279.7269415153
 30
0.0
 11
71.3667640332
 21
263.7269415153
 31
0.0
  0
ARC
  5
E5
330
1F
100
AcDbEntity
  8
0
  6
Continuous
 62
     7
370
    25
100
AcDbCircle
 10
72.3667640332
 20
263.7269415153
 30
0.0
 40
1.0
100
AcDbArc
 50
180.0
 51
270.0
  0
ARC
  5
E6
330
1F
100
AcDbEntity
  8
0
  6
Continuous
 62
     7
370
    25
100
AcDbCircle
 10
203.3667640332
 20
263.7269415153
 30
0.0
 40
1.0
100
AcDbArc
 50
270.0
 51
0.0
  0
ARC
  5
E7
330
1F
100
AcDbEntity
  8
0
  6
Continuous
 62
     7
370
    25
100
AcDbCircle
 10
72.3667640332
 20
279.7269415153
 30
0.0
 40
1.0
100
AcDbArc
 50
90.0
 51
180.0
  0
ARC
  5
E8
330
1F
100
AcDbEntity
  8
0
  6
Continuous
 62
     7
370
    25
100
AcDbCircle
 10
203.3667640332
 20
279.7269415153
 30
0.0
 40
1.0
100
AcDbArc
 50
0.0
 51
90.0
  0
LINE
  5
E9
330
1F
100
AcDbEntity
  8
0
  6
Continuous
 62
     7
370
    25
100
AcDbLine
 10
203.3667640332
 20
262.7269415153
 30
0.0
 11
72.3667640334
 21
262.7269415153
 31
0.0
  0
LINE
  5
EA
330
1F
100
AcDbEntity
  8
0
  6
Continuous
 62
     7
370
    25
100
AcDbLine
 10
72.3667640334
 20
280.7269415153
 30
0.0
 11
203.3667640332
 21
280.7269415153
 31
0.0
  0
LINE
  5
EB
330
1F
100
AcDbEntity
  8
0
  6
Continuous
 62
     1
370
    25
100
AcDbLine
 10
204.3667640332
 20
279.7269415153
 30
0.0
 11
71.3667640332
 21
279.7269415153
 31
0.0
  0
LINE
  5
EC
330
1F
100
AcDbEntity
  8
0
  6
Continuous
 62
     1
370
    25
100
AcDbLine
 10
71.3667640332
 20
263.7269415153
 30
0.0
 11
204.3667640332
 21
263.7269415153
 31
0.0
  0
LINE
  5
ED
330
1F
100
AcDbEntity
  8
0
  6
Continuous
 62
     7
370
    25
100
AcDbLine
 10
71.3667640332
 20
-61.563932665
 30
0.0
 11
71.3667640332
 21
-77.563932665
 31
0.0
  0
LINE
  5
EE
330
1F
100
AcDbEntity
  8
0
  6
Continuous
 62
     7
370
    25
100
AcDbLine
 10
204.3667640332
 20
-77.563932665
 30
0.0
 11
204.3667640332
 21
-61.563932665
 31
0.0
  0
ARC
  5
EF
330
1F
100
AcDbEntity
  8
0
  6
Continuous
 62
     7
370
    25
100
AcDbCircle
 10
203.3667640332
 20
-61.563932665
 30
0.0
 40
1.0
100
AcDbArc
 50
0.0
 51
90.0
  0
ARC
  5
F0
330
1F
100
AcDbEntity
  8
0
  6
Continuous
 62
     7
370
    25
100
AcDbCircle
 10
72.3667640332
 20
-61.563932665
 30
0.0
 40
1.0
100
AcDbArc
 50
90.0
 51
180.0
  0
ARC
  5
F1
330
1F
100
AcDbEntity
  8
0
  6
Continuous
 62
     7
370
    25
100
AcDbCircle
 10
203.3667640332
 20
-77.563932665
 30
0.0
 40
1.0
100
AcDbArc
 50
270.0
 51
0.0
  0
ARC
  5
F2
330
1F
100
AcDbEntity
  8
0
  6
Continuous
 62
     7
370
    25
100
AcDbCircle
 10
72.3667640332
 20
-77.563932665
 30
0.0
 40
1.0
100
AcDbArc
 50
180.0
 51
270.0
  0
LINE
  5
F3
330
1F
100
AcDbEntity
  8
0
  6
Continuous
 62
     7
370
    25
100
AcDbLine
 10
72.3667640334
 20
-60.563932665
 30
0.0
 11
203.3667640332
 21
-60.563932665
 31
0.0
  0
LINE
  5
F4
330
1F
100
AcDbEntity
  8
0
  6
Continuous
 62
     7
370
    25
100
AcDbLine
 10
203.3667640332
 20
-78.563932665
 30
0.0
 11
72.3667640334
 21
-78.563932665
 31
0.0
  0
LINE
  5
F5
330
1F
100
AcDbEntity
  8
0
  6
Continuous
 62
     1
370
    25
100
AcDbLine
 10
71.3667640332
 20
-77.563932665
 30
0.0
 11
204.3667640332
 21
-77.563932665
 31
0.0
  0
LINE
  5
F6
330
1F
100
AcDbEntity
  8
0
  6
Continuous
 62
     1
370
    25
100
AcDbLine
 10
204.3667640332
 20
-61.563932665
 30
0.0
 11
71.3667640332
 21
-61.563932665
 31
0.0
  0
SPLINE
  5
F7
330
1F
100
AcDbEntity
  8
0
  6
Continuous
 62
     7
370
    25
100
AcDbSpline
210
0.0
220
0.0
230
1.0
 70
     8
 71
     3
 72
    79
 73
    75
 74
     0
 42
0.00000001
 43
0.00000001
 40
0.0
 40
0.0
 40
0.0
 40
0.0
 40
0.0084992129582813
 40
0.0224693538803036
 40
0.036454790142636
 40
0.0504599062990122
 40
0.0644875583228305
 40
0.0785390341591874
 40
0.0926141874231721
 40
0.106711695736572
 40
0.1208293840977367
 40
0.1349645568773138
 40
0.1491142954019591
 40
0.1632756957609967
 40
0.1774460381619196
 40
0.1916228916151491
 40
0.2058041649605582
 40
0.219988117917998
 40
0.2341733453663106
 40
0.2483585354610474
 40
0.262542835343416
 40
0.276725699222873
 40
0.290906754406081
 40
0.3050857677925787
 40
0.3192626171006501
 40
0.3334372667934343
 40
0.3476097483495145
 40
0.3617801443668652
 40
0.3759485759425361
 40
0.3901151927871025
 40
0.4042801655818323
 40
0.4184436801491752
 40
0.4326059330716009
 40
0.4467671284542506
 40
0.4609274755800157
 40
0.4750871872506355
 40
0.4892464786439574
 40
0.5034055665463097
 40
0.5175646688404163
 40
0.5317239514293881
 40
0.5458836133218347
 40
0.5600438738391184
 40
0.5742049520904015
 40
0.5883670663481967
 40
0.6025304331141732
 40
0.6166952657413518
 40
0.6308617724560456
 40
0.6450301535894336
 40
0.6592005977867583
 40
0.6733732769115246
 40
0.6875483393027808
 40
0.701725900977584
 40
0.715906034301921
 40
0.730088753589763
 40
0.744273997045842
 40
0.7584616044667781
 40
0.7726512901942343
 40
0.7868426110277265
 40
0.8010349292301089
 40
0.8152271073921017
 40
0.8294178093120835
 40
0.8436054507450157
 40
0.8577880866001215
 40
0.8719634019929635
 40
0.8861287360819454
 40
0.9002811531785825
 40
0.9144175752063829
 40
0.9285349851308071
 40
0.9426307010909017
 40
0.9567027054040066
 40
0.9707499934094538
 40
0.9847728890342866
 40
0.9987732637067631
 40
1.0
 40
1.0
 40
1.0
 40
1.0
 10
325.1987726471089
 20
-1.958435487417337
 30
0.0
 10
324.8891395248597
 20
-1.835790441275451
 30
0.0
 10
324.0705630012415
 20
-1.511553955267309
 30
0.0
 10
322.6858585629296
 20
-1.102571810269029
 30
0.0
 10
321.0537626001898
 20
-0.7204511510601336
 30
0.0
 10
319.3737302231111
 20
-0.4485420729044287
 30
0.0
 10
317.6513468409814
 20
-0.2817280982058551
 30
0.0
 10
315.8887447621035
 20
-0.2220169402894628
 30
0.0
 10
314.0891830856262
 20
-0.2692850375237421
 30
0.0
 10
312.2558075498304
 20
-0.4237251080619342
 30
0.0
 10
310.3919585019869
 20
-0.6851599313267426
 30
0.0
 10
308.5010540715539
 20
-1.053210056570747
 30
0.0
 10
306.5865846716323
 20
-1.527244279620643
 30
0.0
 10
304.6520798348083
 20
-2.106398476297886
 30
0.0
 10
302.7010878801482
 20
-2.789582947763533
 30
0.0
 10
300.7371588436015
 20
-3.575496507219555
 30
0.0
 10
298.7638330874689
 20
-4.462639766913232
 30
0.0
 10
296.7846338946395
 20
-5.449327824910324
 30
0.0
 10
294.8030728738711
 20
-6.533695928043724
 30
0.0
 10
292.8226383675135
 20
-7.713711530208355
 30
0.0
 10
290.8467897759057
 20
-8.987184363384415
 30
0.0
 10
288.8789470434864
 20
-10.35178067851594
 30
0.0
 10
286.9224989047193
 20
-11.80502399669648
 30
0.0
 10
284.980805410357
 20
-13.34429672216637
 30
0.0
 10
283.0571954006622
 20
-14.96684412068786
 30
0.0
 10
281.1549634167139
 20
-16.66977820591164
 30
0.0
 10
279.2773661050627
 20
-18.45008169044925
 30
0.0
 10
277.4276181932789
 20
-20.3046121109646
 30
0.0
 10
275.6088881218407
 20
-22.23010619832009
 30
0.0
 10
273.8242934166997
 20
-24.22318453451758
 30
0.0
 10
272.076895880865
 20
-26.28035651655392
 30
0.0
 10
270.3696966751242
 20
-28.3980256318474
 30
0.0
 10
268.705631349205
 20
-30.5724950391693
 30
0.0
 10
267.0875648762309
 20
-32.79997344176968
 30
0.0
 10
265.5182867356959
 20
-35.07658123464761
 30
0.0
 10
264.0005060836044
 20
-37.39835690482877
 30
0.0
 10
262.5368470427942
 20
-39.7612636617135
 30
0.0
 10
261.1298441421166
 20
-42.16119627279389
 30
0.0
 10
259.7819396012063
 20
-44.59398506183787
 30
0.0
 10
258.495477730624
 20
-47.05540477452989
 30
0.0
 10
257.2727001658467
 20
-49.54118307379056
 30
0.0
 10
256.1157407655543
 20
-52.04701117844684
 30
0.0
 10
255.0266233094517
 20
-54.56854954995438
 30
0.0
 10
254.0072588696771
 20
-57.10143424911772
 30
0.0
 10
253.0594428439905
 20
-59.6412844670694
 30
0.0
 10
252.1848522688973
 20
-62.18371002912945
 30
0.0
 10
251.3850434191849
 20
-64.72431883062421
 30
0.0
 10
250.6614496961066
 20
-67.25872415931825
 30
0.0
 10
250.0153798008276
 20
-69.7825518536876
 30
0.0
 10
249.4480161820157
 20
-72.29144724023617
 30
0.0
 10
248.9604137359163
 20
-74.78108178671042
 30
0.0
 10
248.5534987230157
 20
-77.24715940200284
 30
0.0
 10
248.2280678465078
 20
-79.68542230877964
 30
0.0
 10
247.9847874132279
 20
-82.09165641307175
 30
0.0
 10
247.8241924666756
 20
-84.46169609885834
 30
0.0
 10
247.7466857439154
 20
-86.7914283885152
 30
0.0
 10
247.7525362643048
 20
-89.07679643811773
 30
0.0
 10
247.8418773111228
 20
-91.31380238291246
 30
0.0
 10
248.0147024513113
 20
-93.49849608327209
 30
0.0
 10
248.2708590633491
 20
-95.62698296644419
 30
0.0
 10
248.6100413319039
 20
-97.69543125344914
 30
0.0
 10
249.0317850841208
 20
-99.70008734332686
 30
0.0
 10
249.5354589470095
 20
-101.6372756738361
 30
0.0
 10
250.1202536827127
 20
-103.5034018501839
 30
0.0
 10
250.7851698297065
 20
-105.2949665405315
 30
0.0
 10
251.5290129527828
 20
-107.0085740907293
 30
0.0
 10
252.3503674093463
 20
-108.6409840323
 30
0.0
 10
253.2476672861123
 20
-110.189027144455
 30
0.0
 10
254.2189345805606
 20
-111.6500467427956
 30
0.0
 10
255.2627971163831
 20
-113.0203950278734
 30
0.0
 10
256.3747905301919
 20
-114.3011642175749
 30
0.0
 10
257.5612634932881
 20
-115.4769585828843
 30
0.0
 10
258.4153570836609
 20
-116.2554936435384
 30
0.0
 10
258.8913466567516
 20
-116.6131840607314
 30
0.0
 10
258.9296936344434
 20
-116.642000545848
 30
0.0
  0
LINE
  5
F8
330
1F
100
AcDbEntity
  8
0
  6
Continuous
 62
     7
370
    25
100
AcDbLine
 10
339.6293809994
 20
-9.9730219457
 30
0.0
 11
328.3156725004
 21
-3.4417570512
 31
0.0
  0
LINE
  5
F9
330
1F
100
AcDbEntity
  8
0
  6
Continuous
 62
     7
370
    25
100
AcDbLine
 10
261.8210767801
 20
-118.6262557478
 30
0.0
 11
273.1347852791
 21
-125.1575206424
 31
0.0
  0
SPLINE
  5
FA
330
1F
100
AcDbEntity
  8
0
  6
Continuous
 62
     7
370
    25
100
AcDbSpline
210
0.0
220
0.0
230
1.0
 70
     8
 71
     3
 72
    62
 73
    58
 74
     0
 42
0.00000001
 43
0.00000001
 40
0.0
 40
0.0
 40
0.0
 40
0.0
 40
0.0120001865846683
 40
0.0302714034537048
 40
0.0485629116497935
 40
0.0668803629900015
 40
0.0852274026641321
 40
0.1036056284166077
 40
0.1220147739856432
 40
0.1404530523138829
 40
0.1589175803945613
 40
0.1774048125183542
 40
0.1959109265796146
 40
0.2144321312868372
 40
0.232964883776074
 40
0.2515060231244406
 40
0.270052834430722
 40
0.2886030614007326
 40
0.3071548846167719
 40
0.3257065896348132
 40
0.3442570940053239
 40
0.3628056947664777
 40
0.3813519133087949
 40
0.3998954518185902
 40
0.4184361559186829
 40
0.4369739834428923
 40
0.4555089788662228
 40
0.4740412527171713
 40
0.4925709652425159
 40
0.511098313619106
 40
0.5296235220726092
 40
0.5481468343452549
 40
0.5666685080388316
 40
0.5851888104379498
 40
0.6037080154875505
 40
0.6222264016570169
 40
0.6407442504706214
 40
0.6592618455212064
 40
0.6777794718118011
 40
0.6962973422064845
 40
0.7148157211359669
 40
0.7333348954353087
 40
0.7518551516325394
 40
0.770376775118007
 40
0.7889000489011494
 40
0.8074252517789735
 40
0.8259526557096706
 40
0.8444825221405869
 40
0.863015096984516
 40
0.8815506038714941
 40
0.9000892352253901
 40
0.9186311406278697
 40
0.9371764118424929
 40
0.9557250637889588
 40
0.9742770107018192
 40
0.9928320367098926
 40
1.0
 40
1.0
 40
1.0
 40
1.0
 10
276.2437763875522
 20
-126.6385419446463
 30
0.0
 10
276.5784662894529
 20
-126.770128112241
 30
0.0
 10
277.4227475829838
 20
-127.1020644484038
 30
0.0
 10
278.8345552109405
 20
-127.5155957434635
 30
0.0
 10
280.4688438048659
 20
-127.8928339947243
 30
0.0
 10
282.1507620930275
 20
-128.1602118459342
 30
0.0
 10
283.874959867736
 20
-128.3223687792623
 30
0.0
 10
285.6392330340943
 20
-128.377433771294
 30
0.0
 10
287.4403332018392
 20
-128.3255040722002
 30
0.0
 10
289.2751040059148
 20
-128.1664059096938
 30
0.0
 10
291.1402015467857
 20
-127.9003242784076
 30
0.0
 10
293.0322038304481
 20
-127.5276498419238
 30
0.0
 10
294.9476182461477
 20
-127.0490240405197
 30
0.0
 10
296.8829140157195
 20
-126.4653210760332
 30
0.0
 10
298.8345424415422
 20
-125.777640123372
 30
0.0
 10
300.7989537021641
 20
-124.9872912692994
 30
0.0
 10
302.7726080506543
 20
-124.0957822222917
 30
0.0
 10
304.7519830635305
 20
-123.1048056903962
 30
0.0
 10
306.733567601303
 20
-122.0162341053305
 30
0.0
 10
308.7138745569886
 20
-120.8321070366068
 30
0.0
 10
310.6894458084946
 20
-119.554621447381
 30
0.0
 10
312.6568632476238
 20
-118.1861170930117
 30
0.0
 10
314.6127393427885
 20
-116.7290766759317
 30
0.0
 10
316.5537153439045
 20
-115.1861238378416
 30
0.0
 10
318.4764638343216
 20
-113.5600191892896
 30
0.0
 10
320.3776918429091
 20
-111.8536564233865
 30
0.0
 10
322.2541444597807
 20
-110.0700583591269
 30
0.0
 10
324.102608877486
 20
-108.2123728068738
 30
0.0
 10
325.9199187721252
 20
-106.2838681864274
 30
0.0
 10
327.7029589402291
 20
-104.2879288570214
 30
0.0
 10
329.4486701133921
 20
-102.2280501399216
 30
0.0
 10
331.1540538809186
 20
-100.1078330295227
 30
0.0
 10
332.8161776595589
 20
-97.93097859938952
 30
0.0
 10
334.4321796578322
 20
-95.7012821168057
 30
0.0
 10
335.9992737900213
 20
-93.42262688404216
 30
0.0
 10
337.5147545014548
 20
-91.09897782758719
 30
0.0
 10
338.9760014722814
 20
-88.73437485833539
 30
0.0
 10
340.3804841712275
 20
-86.33292602751128
 30
0.0
 10
341.7257644657951
 20
-83.89880370423198
 30
0.0
 10
343.009502428397
 20
-81.4362353461452
 30
0.0
 10
344.2294609769299
 20
-78.9494951686692
 30
0.0
 10
345.3835110399829
 20
-76.44289331431573
 30
0.0
 10
346.4696336742398
 20
-73.92077053958846
 30
0.0
 10
347.4859227794304
 20
-71.38749167363603
 30
0.0
 10
348.4305880495831
 20
-68.84743808970886
 30
0.0
 10
349.3019576609161
 20
-66.30500019560208
 30
0.0
 10
350.0984806098623
 20
-63.76457003084274
 30
0.0
 10
350.8187289986128
 20
-61.23053384184199
 30
0.0
 10
351.4613991542067
 20
-58.7072653368601
 30
0.0
 10
352.025315764687
 20
-56.19911724840875
 30
0.0
 10
352.5094234807455
 20
-53.71042033544386
 30
0.0
 10
352.9128241560143
 20
-51.24545604067923
 30
0.0
 10
353.2346427567261
 20
-48.80852925532555
 30
0.0
 10
353.4745321863728
 20
-46.40366949097958
 30
0.0
 10
353.6307927474292
 20
-44.03572169549626
 30
0.0
 10
353.6917223391781
 20
-42.18289367488444
 30
0.0
 10
353.696301327052
 20
-41.12319974123145
 30
0.0
 10
353.6975773069394
 20
-40.82790563186014
 30
0.0
  0
SPLINE
  5
FB
330
1F
100
AcDbEntity
  8
0
  6
Continuous
 62
     7
370
    25
100
AcDbSpline
210
0.0
220
0.0
230
1.0
 70
     8
 71
     3
 72
    25
 73
    21
 74
     0
 42
0.00000001
 43
0.00000001
 40
0.0
 40
0.0
 40
0.0
 40
0.0
 40
0.0318871029123434
 40
0.0924080053555836
 40
0.1529382714676756
 40
0.2134681999301448
 40
0.273992092874128
 40
0.3345032580408061
 40
0.3949934681281719
 40
0.4554529178368601
 40
0.5158703182015207
 40
0.5762331897952055
 40
0.6365284152208629
 40
0.6967430932058603
 40
0.7568656955090308
 40
0.8168874624449902
 40
0.8768038912543663
 40
0.9366160936545813
 40
0.9963317530910817
 40
1.0
 40
1.0
 40
1.0
 40
1.0
 10
353.6975773069394
 20
-40.82790563186014
 30
0.0
 10
353.6952477360891
 20
-40.42735204803427
 30
0.0
 10
353.6884966995903
 20
-39.26655804861919
 30
0.0
 10
353.6134940928754
 20
-37.3820323871079
 30
0.0
 10
353.445196063535
 20
-35.19455990803807
 30
0.0
 10
353.1924192655156
 20
-33.06367752753016
 30
0.0
 10
352.8569037861437
 20
-30.9925046121071
 30
0.0
 10
352.4387219158672
 20
-28.98500618746742
 30
0.0
 10
351.938600635682
 20
-27.04480552356918
 30
0.0
 10
351.3573135770064
 20
-25.17551569594256
 30
0.0
 10
350.6958591931725
 20
-23.38063635344098
 30
0.0
 10
349.9554209472789
 20
-21.66356964608597
 30
0.0
 10
349.1374065758783
 20
-20.02756115857253
 30
0.0
 10
348.2433706931872
 20
-18.47579085991617
 30
0.0
 10
347.2752911941661
 20
-17.01091237462359
 30
0.0
 10
346.2345019385089
 20
-15.63662761206569
 30
0.0
 10
345.125576069236
 20
-14.35169111316728
 30
0.0
 10
343.9417331587487
 20
-13.17212089575472
 30
0.0
 10
343.1009427045373
 20
-12.39945877663414
 30
0.0
 10
342.6375897847234
 20
-12.04850452235927
 30
0.0
 10
342.6107739411783
 20
-12.02819358015574
 30
0.0
  0
SPLINE
  5
FC
330
1F
100
AcDbEntity
  8
0
  6
Continuous
 62
     7
370
    25
100
AcDbSpline
210
0.0
220
0.0
230
1.0
 70
     8
 71
     3
 72
    14
 73
    10
 74
     0
 42
0.00000001
 43
0.00000001
 40
0.0
 40
0.0
 40
0.0
 40
0.0
 40
0.076748053879378
 40
0.2526767453605841
 40
0.4015499198516095
 40
0.5598775420261425
 40
0.7122986909463705
 40
0.8619176270158241
 40
1.0
 40
1.0
 40
1.0
 40
1.0
 10
333.9293999353786
 20
-33.99687217480209
 30
0.0
 10
333.9912950864605
 20
-34.0296520458849
 30
0.0
 10
334.1950717887801
 20
-34.13757284282863
 30
0.0
 10
334.4667875209063
 20
-34.40896460248064
 30
0.0
 10
334.7624448591782
 20
-34.81910785807754
 30
0.0
 10
334.995086630122
 20
-35.3111733992676
 30
0.0
 10
335.1680060551128
 20
-35.8999233220971
 30
0.0
 10
335.2735975758784
 20
-36.53978709620311
 30
0.0
 10
335.2865050401244
 20
-37.01002097683706
 30
0.0
 10
335.2926999834083
 20
-37.23570993984207
 30
0.0
  0
SPLINE
  5
FD
330
1F
100
AcDbEntity
  8
0
  6
Continuous
 62
     7
370
    25
100
AcDbSpline
210
0.0
220
0.0
230
1.0
 70
     8
 71
     3
 72
    28
 73
    24
 74
     0
 42
0.00000001
 43
0.00000001
 40
0.0
 40
0.0
 40
0.0
 40
0.0
 40
0.0253975319996504
 40
0.0741349590205901
 40
0.1230356315682648
 40
0.1721041538541187
 40
0.2213287026683289
 40
0.2706776056805166
 40
0.3201104348503795
 40
0.3695832412481077
 40
0.4190481529032871
 40
0.4684467095573365
 40
0.5177330280460293
 40
0.5668626276718658
 40
0.6157960389718377
 40
0.6645068148109842
 40
0.7129974797562794
 40
0.7613291009439189
 40
0.8096392317296062
 40
0.8581844757252608
 40
0.9075241777791287
 40
0.9585984376059229
 40
0.9999999999999999
 40
0.9999999999999999
 40
0.9999999999999999
 40
0.9999999999999999
 10
335.2926999834083
 20
-37.23570993984207
 30
0.0
 10
335.2906793219124
 20
-37.36648815649154
 30
0.0
 10
335.284781045765
 20
-37.74822752125452
 30
0.0
 10
335.2180076158758
 20
-38.42105217683179
 30
0.0
 10
335.0662172895232
 20
-39.25710359844602
 30
0.0
 10
334.8378946703675
 20
-40.12041130163389
 30
0.0
 10
334.5364687255956
 20
-40.9965807871942
 30
0.0
 10
334.165240892077
 20
-41.87231283364158
 30
0.0
 10
333.7293632443076
 20
-42.73393178184712
 30
0.0
 10
333.235180474879
 20
-43.56810943417509
 30
0.0
 10
332.6903025795697
 20
-44.36193611816484
 30
0.0
 10
332.1034214797994
 20
-45.10326568457408
 30
0.0
 10
331.4841879580401
 20
-45.78095375901821
 30
0.0
 10
330.8430339711884
 20
-46.38513289194525
 30
0.0
 10
330.191079085303
 20
-46.90740836501008
 30
0.0
 10
329.5399287013612
 20
-47.34117060381467
 30
0.0
 10
328.9013803342335
 20
-47.68191045909269
 30
0.0
 10
328.2869994555591
 20
-47.92758898477556
 30
0.0
 10
327.7077403288348
 20
-48.07851719628546
 30
0.0
 10
327.1716440964064
 20
-48.13875480852951
 30
0.0
 10
326.684666714238
 20
-48.10996613100935
 30
0.0
 10
326.2736920176002
 20
-48.01557902967164
 30
0.0
 10
326.0478789239016
 20
-47.89259403868925
 30
0.0
 10
325.9467820678408
 20
-47.83753347631293
 30
0.0
  0
SPLINE
  5
FE
330
1F
100
AcDbEntity
  8
0
  6
Continuous
 62
     7
370
    25
100
AcDbSpline
210
0.0
220
0.0
230
1.0
 70
     8
 71
     3
 72
    14
 73
    10
 74
     0
 42
0.00000001
 43
0.00000001
 40
0.0
 40
0.0
 40
0.0
 40
0.0
 40
0.0767480538793701
 40
0.2526767453605865
 40
0.4015499198516066
 40
0.5598775420261373
 40
0.7122986909463609
 40
0.8619176270158222
 40
0.9999999999999999
 40
0.9999999999999999
 40
0.9999999999999999
 40
0.9999999999999999
 10
299.0690356228818
 20
-94.3767941571957
 30
0.0
 10
299.1309307739638
 20
-94.4095740282785
 30
0.0
 10
299.3347074762833
 20
-94.51749482522223
 30
0.0
 10
299.6064232084096
 20
-94.78888658487422
 30
0.0
 10
299.9020805466814
 20
-95.19902984047116
 30
0.0
 10
300.1347223176253
 20
-95.69109538166119
 30
0.0
 10
300.3076417426161
 20
-96.2798453044907
 30
0.0
 10
300.4132332633816
 20
-96.91970907859668
 30
0.0
 10
300.4261407276276
 20
-97.38994295923068
 30
0.0
 10
300.4323356709116
 20
-97.61563192223568
 30
0.0
  0
SPLINE
  5
FF
330
1F
100
AcDbEntity
  8
0
  6
Continuous
 62
     7
370
    25
100
AcDbSpline
210
0.0
220
0.0
230
1.0
 70
     8
 71
     3
 72
    28
 73
    24
 74
     0
 42
0.00000001
 43
0.00000001
 40
0.0
 40
0.0
 40
0.0
 40
0.0
 40
0.0253975319996507
 40
0.0741349590205848
 40
0.12303563156826
 40
0.1721041538541113
 40
0.2213287026683234
 40
0.2706776056805117
 40
0.3201104348503753
 40
0.3695832412481013
 40
0.4190481529032791
 40
0.4684467095573304
 40
0.5177330280460221
 40
0.5668626276718585
 40
0.6157960389718286
 40
0.664506814810976
 40
0.7129974797562725
 40
0.7613291009439113
 40
0.8096392317295967
 40
0.8581844757252554
 40
0.9075241777791223
 40
0.9585984376059152
 40
1.0
 40
1.0
 40
1.0
 40
1.0
 10
300.4323356709116
 20
-97.61563192223568
 30
0.0
 10
300.4303150094157
 20
-97.74641013888514
 30
0.0
 10
300.4244167332683
 20
-98.12814950364809
 30
0.0
 10
300.3576433033791
 20
-98.80097415922535
 30
0.0
 10
300.2058529770264
 20
-99.6370255808395
 30
0.0
 10
299.9775303578708
 20
-100.5003332840274
 30
0.0
 10
299.6761044130989
 20
-101.3765027695877
 30
0.0
 10
299.3048765795802
 20
-102.2522348160351
 30
0.0
 10
298.8689989318108
 20
-103.1138537642406
 30
0.0
 10
298.3748161623823
 20
-103.9480314165686
 30
0.0
 10
297.8299382670731
 20
-104.7418581005583
 30
0.0
 10
297.2430571673027
 20
-105.4831876669676
 30
0.0
 10
296.6238236455434
 20
-106.1608757414117
 30
0.0
 10
295.9826696586918
 20
-106.7650548743387
 30
0.0
 10
295.3307147728064
 20
-107.2873303474036
 30
0.0
 10
294.6795643888645
 20
-107.7210925862082
 30
0.0
 10
294.0410160217369
 20
-108.0618324414862
 30
0.0
 10
293.4266351430625
 20
-108.3075109671691
 30
0.0
 10
292.8473760163382
 20
-108.4584391786791
 30
0.0
 10
292.3112797839098
 20
-108.5186767909231
 30
0.0
 10
291.8243024017414
 20
-108.489888113403
 30
0.0
 10
291.4133277051035
 20
-108.3955010120653
 30
0.0
 10
291.1875146114049
 20
-108.2725160210829
 30
0.0
 10
291.0864177553441
 20
-108.2174554587066
 30
0.0
  0
SPLINE
  5
100
330
1F
100
AcDbEntity
  8
0
  6
Continuous
 62
     7
370
    25
100
AcDbSpline
210
0.0
220
0.0
230
1.0
 70
     8
 71
     3
 72
    21
 73
    17
 74
     0
 42
0.00000001
 43
0.00000001
 40
0.0
 40
0.0
 40
0.0
 40
0.0
 40
0.0147130420673664
 40
0.095420413024352
 40
0.17606416181945
 40
0.2563965694683023
 40
0.336274600004299
 40
0.4156530962978331
 40
0.4945644137698819
 40
0.5730848082695619
 40
0.6513052117185932
 40
0.7293126183809493
 40
0.8071810493615657
 40
0.8849688577924999
 40
0.9627194598799125
 40
1.0
 40
1.0
 40
1.0
 40
1.0
 10
310.614081050323
 20
-34.2237914633379
 30
0.0
 10
310.6710501496407
 20
-34.2539952168124
 30
0.0
 10
311.0405192887645
 20
-34.44987956338226
 30
0.0
 10
311.665877695828
 20
-34.90886598568173
 30
0.0
 10
312.4835446127231
 20
-35.60463397879543
 30
0.0
 10
313.2311681002811
 20
-36.40514549349361
 30
0.0
 10
313.9121285986747
 20
-37.29493186623074
 30
0.0
 10
314.5223301035817
 20
-38.27295388392267
 30
0.0
 10
315.0604731053019
 20
-39.33441525983724
 30
0.0
 10
315.5249751988648
 20
-40.47567669268409
 30
0.0
 10
315.9145755764925
 20
-41.69280774895774
 30
0.0
 10
316.2279149823054
 20
-42.98186748375535
 30
0.0
 10
316.4641621202215
 20
-44.3383601410296
 30
0.0
 10
316.6209598455757
 20
-45.7584408144046
 30
0.0
 10
316.6881811880841
 20
-46.97826659867901
 30
0.0
 10
316.6939288678207
 20
-47.72837374964581
 30
0.0
 10
316.6957916382053
 20
-47.97147661030887
 30
0.0
  0
SPLINE
  5
101
330
1F
100
AcDbEntity
  8
0
  6
Continuous
 62
     7
370
    25
100
AcDbSpline
210
0.0
220
0.0
230
1.0
 70
     8
 71
     3
 72
    45
 73
    41
 74
     0
 42
0.00000001
 43
0.00000001
 40
0.0
 40
0.0
 40
0.0
 40
0.0
 40
0.0139944969673079
 40
0.0406711942982235
 40
0.0673605954458876
 40
0.0940610217302583
 40
0.1207739201965835
 40
0.1474996295025598
 40
0.1742377228634178
 40
0.2009872577085672
 40
0.2277469524035482
 40
0.25451530845785
 40
0.281290692855039
 40
0.3080713917611037
 40
0.3348556441125384
 40
0.3616416614757589
 40
0.3884276168329272
 40
0.4152111140013218
 40
0.4419903330203964
 40
0.4687634560032893
 40
0.4955286790824834
 40
0.5222842341701971
 40
0.5490284254933521
 40
0.5757596876935942
 40
0.602476674528203
 40
0.6291783901000513
 40
0.6558643780280721
 40
0.6825349877409346
 40
0.7091917403240419
 40
0.7358378173001004
 40
0.7624786909034417
 40
0.7891202260333682
 40
0.8157730134787866
 40
0.8424526881506182
 40
0.8691801454225568
 40
0.8959817116688733
 40
0.9228881134481133
 40
0.9499313309032651
 40
0.9771383818115051
 40
1.0
 40
1.0
 40
1.0
 40
1.0
 10
316.6957916382053
 20
-47.97147661030887
 30
0.0
 10
316.6935753604869
 20
-48.24005833991082
 30
0.0
 10
316.6871343528597
 20
-49.02061799383134
 30
0.0
 10
316.6153163499346
 20
-50.34971097205085
 30
0.0
 10
316.453777906117
 20
-51.96751203819908
 30
0.0
 10
316.2112035492241
 20
-53.6211037250858
 30
0.0
 10
315.8896227785377
 20
-55.30323117840004
 30
0.0
 10
315.4896472414088
 20
-57.00771927542658
 30
0.0
 10
315.0126894075719
 20
-58.72798012283354
 30
0.0
 10
314.4603635914684
 20
-60.45743357244868
 30
0.0
 10
313.8346365363636
 20
-62.18943703240058
 30
0.0
 10
313.1377747307117
 20
-63.91734402802281
 30
0.0
 10
312.3723446740174
 20
-65.63452589024484
 30
0.0
 10
311.5411978574847
 20
-67.33440143819858
 30
0.0
 10
310.6474590370953
 20
-69.01046302395983
 30
0.0
 10
309.6945132473917
 20
-70.65630192663124
 30
0.0
 10
308.6859994954312
 20
-72.26562222016575
 30
0.0
 10
307.6257912569865
 20
-73.83227834681755
 30
0.0
 10
306.5179813875948
 20
-75.35030033619508
 30
0.0
 10
305.3668584266084
 20
-76.81392767529522
 30
0.0
 10
304.17689843378
 20
-78.21762144353632
 30
0.0
 10
302.9527488124866
 20
-79.5560880525612
 30
0.0
 10
301.6992111865084
 20
-80.8243030732802
 30
0.0
 10
300.4212230269568
 20
-82.01753522161478
 30
0.0
 10
299.123837589886
 20
-83.1313705391264
 30
0.0
 10
297.8122015569245
 20
-84.16173670926486
 30
0.0
 10
296.4915295599531
 20
-85.10492728126847
 30
0.0
 10
295.1670745512672
 20
-85.95762524782782
 30
0.0
 10
293.8440927153474
 20
-86.71692500875973
 30
0.0
 10
292.5278016761216
 20
-87.38035069202341
 30
0.0
 10
291.223373839385
 20
-87.94584995018987
 30
0.0
 10
289.9358633192801
 20
-88.41181629855362
 30
0.0
 10
288.6701266712333
 20
-88.7770966015799
 30
0.0
 10
287.4307251833504
 20
-89.04093923502822
 30
0.0
 10
286.2218127464031
 20
-89.20302550185512
 30
0.0
 10
285.0473057286497
 20
-89.26296901405976
 30
0.0
 10
283.9100618770095
 20
-89.22167450911162
 30
0.0
 10
282.8149932281375
 20
-89.0755958217717
 30
0.0
 10
281.8163473907085
 20
-88.85088127145383
 30
0.0
 10
281.2094400175459
 20
-88.62661988140496
 30
0.0
 10
280.9323229123514
 20
-88.52422094877481
 30
0.0
  0
SPLINE
  5
102
330
1F
100
AcDbEntity
  8
0
  6
Continuous
 62
     7
370
    25
100
AcDbSpline
210
0.0
220
0.0
230
1.0
 70
     8
 71
     3
 72
    47
 73
    43
 74
     0
 42
0.00000001
 43
0.00000001
 40
0.0
 40
0.0
 40
0.0
 40
0.0
 40
0.0113380140084874
 40
0.037246063643728
 40
0.0630697741846267
 40
0.0888359724382557
 40
0.1145665538549134
 40
0.1402782611296726
 40
0.1659832319376347
 40
0.1916880669312253
 40
0.2173984024860426
 40
0.2431181202064859
 40
0.2688493127577729
 40
0.294592795071536
 40
0.3203484908336954
 40
0.3461157160929911
 40
0.3718933823490453
 40
0.3976801386719088
 40
0.4234744687625437
 40
0.44927475536525
 40
0.47507932147566
 40
0.5008864554479326
 40
0.5266944253610887
 40
0.5525011758307264
 40
0.578304684718575
 40
0.6041031984877611
 40
0.629894970431261
 40
0.6556782763541297
 40
0.6814514419238017
 40
0.7072128872815442
 40
0.7329611964588243
 40
0.7586952216144268
 40
0.7844142351957055
 40
0.8101181466811116
 40
0.8358078040858824
 40
0.8614854027343523
 40
0.8871550225061632
 40
0.9128224166978925
 40
0.9384947921270181
 40
0.9641849153208792
 40
0.9899103094061589
 40
1.0
 40
1.0
 40
1.0
 40
1.0
 10
286.3770649897349
 20
-89.16601181869298
 30
0.0
 10
286.3029688680451
 20
-89.00772222597578
 30
0.0
 10
286.0595586145254
 20
-88.48773131398082
 30
0.0
 10
285.7230721238114
 20
-87.51888151765351
 30
0.0
 10
285.3683115123584
 20
-86.26903517120535
 30
0.0
 10
285.0944745427041
 20
-84.9444885947826
 30
0.0
 10
284.8974515761152
 20
-83.55593580787298
 30
0.0
 10
284.7796108738679
 20
-82.10650575964453
 30
0.0
 10
284.7413308555994
 20
-80.60182655983961
 30
0.0
 10
284.7831896950345
 20
-79.04728678547264
 30
0.0
 10
284.9053309568903
 20
-77.44870341892285
 30
0.0
 10
285.1076133740139
 20
-75.81204973835162
 30
0.0
 10
285.3895580811723
 20
-74.14350571656148
 30
0.0
 10
285.7503536506345
 20
-72.44941614497024
 30
0.0
 10
286.1888530303499
 20
-70.73625468979778
 30
0.0
 10
286.7035787431868
 20
-69.01058597860091
 30
0.0
 10
287.2927299847906
 20
-67.27903160075498
 30
0.0
 10
287.9541919935365
 20
-65.54823811973117
 30
0.0
 10
288.6855466910025
 20
-63.82484714030704
 30
0.0
 10
289.4840842760394
 20
-62.11546694068281
 30
0.0
 10
290.3468154924578
 20
-60.42664537024209
 30
0.0
 10
291.2704844270937
 20
-58.76484373312451
 30
0.0
 10
292.2515778191622
 20
-57.13641797473718
 30
0.0
 10
293.2863380781637
 20
-55.54759221483255
 30
0.0
 10
294.370780436685
 20
-54.00442779754488
 30
0.0
 10
295.5007127235601
 20
-52.51279304616158
 30
0.0
 10
296.6717510227901
 20
-51.07834106464934
 30
0.0
 10
297.8793318524021
 20
-49.70649154563045
 30
0.0
 10
299.1187287834433
 20
-48.40240699155234
 30
0.0
 10
300.3850701307964
 20
-47.17096884167758
 30
0.0
 10
301.6733581374384
 20
-46.01675329561937
 30
0.0
 10
302.9784899650598
 20
-44.94400739884167
 30
0.0
 10
304.2952819653772
 20
-43.9566234250857
 30
0.0
 10
305.6184953036854
 20
-43.05811974014772
 30
0.0
 10
306.9428747583811
 20
-42.25159974209451
 30
0.0
 10
308.2631622872765
 20
-41.53979898969611
 30
0.0
 10
309.5742198633263
 20
-40.92482434855029
 30
0.0
 10
310.8707084298014
 20
-40.40909391086328
 30
0.0
 10
312.1484610193501
 20
-39.9918039100754
 30
0.0
 10
313.3997736111992
 20
-39.68205488414851
 30
0.0
 10
314.3810409356844
 20
-39.49708777901683
 30
0.0
 10
314.9304749774175
 20
-39.45135117444846
 30
0.0
 10
315.0852594636885
 20
-39.43846643068637
 30
0.0
  0
SPLINE
  5
103
330
1F
100
AcDbEntity
  8
0
  6
Continuous
 62
     7
370
    25
100
AcDbSpline
210
0.0
220
0.0
230
1.0
 70
     8
 71
     3
 72
    14
 73
    10
 74
     0
 42
0.00000001
 43
0.00000001
 40
0.0
 40
0.0
 40
0.0
 40
0.0
 40
0.0767480538793459
 40
0.2526767453605614
 40
0.4015499198515896
 40
0.5598775420261186
 40
0.7122986909463463
 40
0.861917627015807
 40
1.0
 40
1.0
 40
1.0
 40
1.0
 10
299.069035622885
 20
-13.86587010526258
 30
0.0
 10
299.1309307739669
 20
-13.89864997634536
 30
0.0
 10
299.3347074762864
 20
-14.0065707732891
 30
0.0
 10
299.6064232084127
 20
-14.27796253294105
 30
0.0
 10
299.9020805466846
 20
-14.68810578853799
 30
0.0
 10
300.1347223176284
 20
-15.18017132972801
 30
0.0
 10
300.3076417426192
 20
-15.76892125255752
 30
0.0
 10
300.4132332633848
 20
-16.40878502666355
 30
0.0
 10
300.4261407276308
 20
-16.87901890729753
 30
0.0
 10
300.4323356709148
 20
-17.10470787030256
 30
0.0
  0
SPLINE
  5
104
330
1F
100
AcDbEntity
  8
0
  6
Continuous
 62
     7
370
    25
100
AcDbSpline
210
0.0
220
0.0
230
1.0
 70
     8
 71
     3
 72
    28
 73
    24
 74
     0
 42
0.00000001
 43
0.00000001
 40
0.0
 40
0.0
 40
0.0
 40
0.0
 40
0.0253975319996507
 40
0.0741349590205847
 40
0.1230356315682599
 40
0.1721041538541112
 40
0.2213287026683233
 40
0.2706776056805116
 40
0.3201104348503752
 40
0.3695832412481012
 40
0.4190481529032791
 40
0.4684467095573309
 40
0.5177330280460197
 40
0.5668626276718566
 40
0.6157960389718301
 40
0.6645068148109748
 40
0.7129974797562717
 40
0.7613291009439109
 40
0.8096392317295964
 40
0.858184475725255
 40
0.907524177779122
 40
0.9585984376059149
 40
1.0
 40
1.0
 40
1.0
 40
1.0
 10
300.4323356709148
 20
-17.10470787030257
 30
0.0
 10
300.4303150094188
 20
-17.23548608695204
 30
0.0
 10
300.4244167332715
 20
-17.61722545171497
 30
0.0
 10
300.3576433033822
 20
-18.29005010729226
 30
0.0
 10
300.2058529770296
 20
-19.1261015289064
 30
0.0
 10
299.9775303578739
 20
-19.98940923209428
 30
0.0
 10
299.6761044131021
 20
-20.86557871765459
 30
0.0
 10
299.3048765795834
 20
-21.741310764102
 30
0.0
 10
298.868998931814
 20
-22.60292971230752
 30
0.0
 10
298.3748161623855
 20
-23.43710736463549
 30
0.0
 10
297.8299382670763
 20
-24.23093404862523
 30
0.0
 10
297.2430571673059
 20
-24.97226361503448
 30
0.0
 10
296.6238236455466
 20
-25.64995168947859
 30
0.0
 10
295.982669658695
 20
-26.25413082240564
 30
0.0
 10
295.3307147728096
 20
-26.77640629547049
 30
0.0
 10
294.6795643888677
 20
-27.21016853427512
 30
0.0
 10
294.0410160217401
 20
-27.55090838955313
 30
0.0
 10
293.4266351430657
 20
-27.79658691523601
 30
0.0
 10
292.8473760163413
 20
-27.94751512674595
 30
0.0
 10
292.311279783913
 20
-28.00775273899
 30
0.0
 10
291.8243024017445
 20
-27.97896406146987
 30
0.0
 10
291.4133277051067
 20
-27.88457696013216
 30
0.0
 10
291.1875146114081
 20
-27.76159196914976
 30
0.0
 10
291.0864177553473
 20
-27.70653140677345
 30
0.0
  0
SPLINE
  5
105
330
1F
100
AcDbEntity
  8
0
  6
Continuous
 62
     7
370
    25
100
AcDbSpline
210
0.0
220
0.0
230
1.0
 70
     8
 71
     3
 72
    14
 73
    10
 74
     0
 42
0.00000001
 43
0.00000001
 40
0.0
 40
0.0
 40
0.0
 40
0.0
 40
0.0767480538793961
 40
0.2526767453605986
 40
0.4015499198516223
 40
0.5598775420261562
 40
0.712298690946367
 40
0.8619176270158408
 40
1.0
 40
1.0
 40
1.0
 40
1.0
 10
264.2086713103883
 20
-74.24579208765621
 30
0.0
 10
264.2705664614702
 20
-74.27857195873902
 30
0.0
 10
264.4743431637897
 20
-74.38649275568278
 30
0.0
 10
264.746058895916
 20
-74.65788451533479
 30
0.0
 10
265.0417162341879
 20
-75.0680277709317
 30
0.0
 10
265.2743580051317
 20
-75.56009331212174
 30
0.0
 10
265.4472774301225
 20
-76.14884323495127
 30
0.0
 10
265.552868950888
 20
-76.78870700905723
 30
0.0
 10
265.5657764151341
 20
-77.2589408896912
 30
0.0
 10
265.571971358418
 20
-77.48462985269619
 30
0.0
  0
SPLINE
  5
106
330
1F
100
AcDbEntity
  8
0
  6
Continuous
 62
     7
370
    25
100
AcDbSpline
210
0.0
220
0.0
230
1.0
 70
     8
 71
     3
 72
    28
 73
    24
 74
     0
 42
0.00000001
 43
0.00000001
 40
0.0
 40
0.0
 40
0.0
 40
0.0
 40
0.0253975319996504
 40
0.0741349590205902
 40
0.1230356315682649
 40
0.1721041538541189
 40
0.2213287026683289
 40
0.2706776056805167
 40
0.3201104348503796
 40
0.3695832412481078
 40
0.4190481529032872
 40
0.4684467095573363
 40
0.5177330280460292
 40
0.5668626276718643
 40
0.6157960389718385
 40
0.664506814810985
 40
0.7129974797562803
 40
0.7613291009439205
 40
0.8096392317296094
 40
0.8581844757252634
 40
0.9075241777791293
 40
0.9585984376059237
 40
1.0
 40
1.0
 40
1.0
 40
1.0
 10
265.571971358418
 20
-77.48462985269619
 30
0.0
 10
265.5699506969221
 20
-77.61540806934565
 30
0.0
 10
265.5640524207747
 20
-77.99714743410864
 30
0.0
 10
265.4972789908854
 20
-78.66997208968593
 30
0.0
 10
265.3454886645328
 20
-79.50602351130016
 30
0.0
 10
265.1171660453772
 20
-80.36933121448801
 30
0.0
 10
264.8157401006052
 20
-81.24550070004832
 30
0.0
 10
264.4445122670866
 20
-82.1212327464957
 30
0.0
 10
264.0086346193172
 20
-82.98285169470125
 30
0.0
 10
263.5144518498887
 20
-83.81702934702922
 30
0.0
 10
262.9695739545794
 20
-84.61085603101897
 30
0.0
 10
262.382692854809
 20
-85.3521855974282
 30
0.0
 10
261.7634593330498
 20
-86.02987367187234
 30
0.0
 10
261.1223053461981
 20
-86.63405280479935
 30
0.0
 10
260.4703504603128
 20
-87.1563282778642
 30
0.0
 10
259.8192000763708
 20
-87.5900905166688
 30
0.0
 10
259.1806517092432
 20
-87.93083037194681
 30
0.0
 10
258.5662708305688
 20
-88.17650889762967
 30
0.0
 10
257.9870117038444
 20
-88.3274371091396
 30
0.0
 10
257.4509154714161
 20
-88.38767472138363
 30
0.0
 10
256.9639380892477
 20
-88.35888604386346
 30
0.0
 10
256.5529633926099
 20
-88.26449894252576
 30
0.0
 10
256.3271502989113
 20
-88.14151395154336
 30
0.0
 10
256.2260534428506
 20
-88.08645338916706
 30
0.0
  0
LWPOLYLINE
  5
107
330
1F
100
AcDbEntity
  8
0
  6
Continuous
 62
     7
370
    25
100
AcDbPolyline
 90
      142
 70
   128
 43
0.0
 10
340.6767620268
 20
-33.8884366814
 10
340.6307844635
 20
-31.5324608558
 10
340.492943058
 20
-29.2342471668
 10
340.2635114814
 20
-26.9983585048
 10
339.9429452491
 20
-24.8292340198
 10
339.5318808156
 20
-22.7311803078
 10
339.0311343112
 20
-20.7083628601
 10
338.4416999219
 20
-18.7647977936
 10
337.7647479149
 20
-16.9043438768
 10
337.0016223159
 20
-15.1306948687
 10
336.1538382401
 20
-13.4473721853
 10
335.2230788844
 20
-11.8577179079
 10
334.2111921852
 20
-10.364888148
 10
333.1201871499
 20
-8.9718467808
 10
331.9522298681
 20
-7.6813595611
 10
330.7096392108
 20
-6.4959886318
 10
329.3948822267
 20
-5.4180874371
 10
328.0105692442
 20
-4.4497960501
 10
326.5594486885
 20
-3.5930369237
 10
325.0444016251
 20
-2.8495110738
 10
323.4684360399
 20
-2.2206947022
 10
321.8346808665
 20
-1.7078362656
 10
320.1463797746
 20
-1.3119539969
 10
318.4068847298
 20
-1.0338338838
 10
316.6196493385
 20
-0.8740281079
 10
314.7882219911
 20
-0.8328539489
 10
312.9162388171
 20
-0.9103931543
 10
311.0074164657
 20
-1.106491777
 10
309.0655447272
 20
-1.4207604816
 10
307.094479008
 20
-1.8525753165
 10
305.0981326767
 20
-2.4010789533
 10
303.0804692942
 20
-3.0651823889
 10
301.0454947443
 20
-3.8435671073
 10
298.9972492807
 20
-4.7346876978
 10
296.9397995051
 20
-5.7367749229
 10
294.8772302935
 20
-6.8478392311
 10
292.8136366863
 20
-8.0656747072
 10
290.7531157576
 20
-9.3878634515
 10
288.6997584809
 20
-10.8117803807
 10
286.6576416069
 20
-12.3345984395
 10
284.6308195699
 20
-13.9532942136
 10
282.6233164372
 20
-15.6646539324
 10
280.6391179205
 20
-17.4652798495
 10
278.6821634624
 20
-19.3515969889
 10
276.7563384147
 20
-21.3198602426
 10
274.8654663248
 20
-23.3661618059
 10
273.0133013443
 20
-25.4864389366
 10
271.2035207752
 20
-27.6764820207
 10
269.4397177694
 20
-29.9319429304
 10
267.7253941944
 20
-32.2483436568
 10
266.063953681
 20
-34.6210852006
 10
264.4586948657
 20
-37.0454567032
 10
262.9128048411
 20
-39.5166447994
 10
261.4293528288
 20
-42.029743174
 10
260.0112840854
 20
-44.5797623027
 10
258.6614140553
 20
-47.1616393586
 10
257.3824227804
 20
-49.7702482638
 10
256.1768495794
 20
-52.4004098668
 10
255.0470880064
 20
-55.0469022252
 10
253.9953810985
 20
-57.7044709733
 10
253.0238169222
 20
-60.3678397545
 10
252.1343244284
 20
-63.0317206965
 10
251.3286696221
 20
-65.6908249104
 10
250.6084520563
 20
-68.3398729907
 10
249.9751016563
 20
-70.9736054979
 10
249.4298758807
 20
-73.5867933997
 10
248.9738572248
 20
-76.1742484535
 10
248.6079510715
 20
-78.7308335068
 10
248.3328838936
 20
-81.2514726966
 10
248.1492018114
 20
-83.7311615271
 10
248.0572695088
 20
-86.1649768057
 10
248.0572695088
 20
-88.5480864174
 10
248.1492018114
 20
-90.8757589187
 10
248.3328838936
 20
-93.1433729313
 10
248.6079510715
 20
-95.3464263175
 10
248.9738572248
 20
-97.4805451186
 10
249.4298758807
 20
-99.5414922394
 10
249.9751016563
 20
-101.5251758601
 10
250.6084520563
 20
-103.4276575606
 10
251.3286696221
 20
-105.2451601394
 10
252.1343244284
 20
-106.9740751135
 10
253.0238169222
 20
-108.6109698822
 10
253.9953810985
 20
-110.1525945424
 10
255.0470880064
 20
-111.5958883412
 10
256.1768495794
 20
-112.9379857523
 10
257.3824227804
 20
-114.1762221654
 10
258.6614140553
 20
-115.3081391768
 10
260.0112840854
 20
-116.3314894701
 10
261.4293528288
 20
-117.244241278
 10
262.9128048411
 20
-118.0445824162
 10
264.4586948657
 20
-118.7309238815
 10
266.063953681
 20
-119.3019030065
 10
267.7253941944
 20
-119.7563861649
 10
269.4397177694
 20
-120.0934710225
 10
271.2035207752
 20
-120.3124883286
 10
273.0133013443
 20
-120.4130032445
 10
274.8654663248
 20
-120.3948162072
 10
276.7563384147
 20
-120.2579633253
 10
278.6821634624
 20
-120.0027163076
 10
280.6391179205
 20
-119.6295819235
 10
282.6233164372
 20
-119.1393009966
 10
284.6308195699
 20
-118.5328469344
 10
286.6576416069
 20
-117.8114237953
 10
288.6997584809
 20
-116.9764638982
 10
290.7531157576
 20
-116.0296249786
 10
292.8136366863
 20
-114.9727868976
 10
294.8772302935
 20
-113.8080479094
 10
296.9397995051
 20
-112.5377204953
 10
298.9972492807
 20
-111.164326773
 10
301.0454947443
 20
-109.6905934885
 10
303.0804692942
 20
-108.1194466028
 10
305.0981326767
 20
-106.4540054827
 10
307.094479008
 20
-104.6975767073
 10
309.0655447272
 20
-102.8536475034
 10
311.0074164657
 20
-100.9258788217
 10
312.9162388171
 20
-98.9180980685
 10
314.7882219911
 20
-96.8342915067
 10
316.6196493385
 20
-94.6785963412
 10
318.4068847298
 20
-92.4552925053
 10
320.1463797746
 20
-90.168794163
 10
321.8346808665
 20
-87.8236409451
 10
323.4684360399
 20
-85.4244889362
 10
325.0444016251
 20
-82.9761014305
 10
326.5594486885
 20
-80.4833394748
 10
328.0105692442
 20
-77.9511522173
 10
329.3948822267
 20
-75.3845670813
 10
330.7096392108
 20
-72.788679784
 10
331.9522298681
 20
-70.1686442194
 10
333.1201871499
 20
-67.5296622256
 10
334.2111921852
 20
-64.8769732571
 10
335.2230788844
 20
-62.2158439822
 10
336.1538382401
 20
-59.5515578269
 10
337.0016223159
 20
-56.8894044846
 10
337.7647479149
 20
-54.2346694143
 10
338.4416999219
 20
-51.592623347
 10
339.0311343112
 20
-48.9685118203
 10
339.5318808156
 20
-46.367544765
 10
339.9429452491
 20
-43.7948861602
 10
340.2635114814
 20
-41.2556437816
 10
340.492943058
 20
-38.7548590599
 10
340.6307844635
 20
-36.2974970715
 10
340.6767620268
 20
-33.8884366814
  0
ARC
  5
108
330
1F
100
AcDbEntity
  8
0
  6
Continuous
 62
     7
370
    25
100
AcDbCircle
 10
272.9674596353
 20
-99.3181766749
 30
0.0
 40
22.29403643561202
100
AcDbArc
 50
231.2419108825
 51
248.8924080648
  0
ARC
  5
109
330
1F
100
AcDbEntity
  8
0
  6
Continuous
 62
     7
370
    25
100
AcDbCircle
 10
317.1717425586
 20
-22.7456227108
 30
0.0
 40
22.28918499182008
100
AcDbArc
 50
51.4767771963
 51
68.627080467
  0
ARC
  5
10A
330
1F
100
AcDbEntity
  8
0
  6
Continuous
 62
     7
370
    25
100
AcDbCircle
 10
328.4452540621
 20
-29.3314885842
 30
0.0
 40
22.35698830214095
100
AcDbArc
 50
50.9616189201
 51
59.9833298906
  0
ARC
  5
10B
330
1F
100
AcDbEntity
  8
0
  6
Continuous
 62
     7
370
    25
100
AcDbCircle
 10
284.281757971
 20
-105.8408626312
 30
0.0
 40
22.30220340939783
100
AcDbArc
 50
240.0122479571
 51
248.6114733036
  0
LWPOLYLINE
  5
10C
330
1F
100
AcDbEntity
  8
0
  6
Continuous
 62
     7
370
    25
100
AcDbPolyline
 90
       53
 70
   128
 43
0.0
 10
300.7252288897
 20
-97.2074278663
 10
300.6788284486
 20
-98.1200223396
 10
300.5403037482
 20
-99.0728819395
 10
300.3116747905
 20
-100.0521118273
 10
299.9962755007
 20
-101.0434326263
 10
299.5987051105
 20
-102.032388647
 10
299.1247610915
 20
-103.0045586835
 10
298.5813546147
 20
-103.9457663077
 10
297.9764097701
 20
-104.842286593
 10
297.318748016
 20
-105.6810462549
 10
296.6179595415
 20
-106.4498142887
 10
295.8842634206
 20
-107.1373803253
 10
295.128358595
 20
-107.7337181038
 10
294.361267859
 20
-108.2301316765
 10
293.5941771231
 20
-108.6193822156
 10
292.8382722975
 20
-108.8957935718
 10
292.1045761766
 20
-109.0553350451
 10
291.4037877021
 20
-109.0956801615
 10
290.7461259479
 20
-109.0162405985
 10
290.1411811034
 20
-108.8181747636
 10
289.5977746266
 20
-108.5043709029
 10
289.1238306076
 20
-108.0794049831
 10
288.7262602174
 20
-107.5494739644
 10
288.4108609275
 20
-106.9223054343
 10
288.1822319699
 20
-106.2070449222
 10
288.0437072695
 20
-105.4141225371
 10
287.9973068284
 20
-104.5551008727
 10
288.0437072695
 20
-103.6425063994
 10
288.1822319699
 20
-102.6896467995
 10
288.4108609275
 20
-101.7104169117
 10
288.7262602174
 20
-100.7190961127
 10
289.1238306076
 20
-99.7301400921
 10
289.5977746266
 20
-98.7579700555
 10
290.1411811034
 20
-97.8167624313
 10
290.7461259479
 20
-96.920242146
 10
291.4037877021
 20
-96.0814824842
 10
292.1045761766
 20
-95.3127144504
 10
292.8382722975
 20
-94.6251484137
 10
293.5941771231
 20
-94.0288106352
 10
294.361267859
 20
-93.5323970626
 10
295.128358595
 20
-93.1431465234
 10
295.8842634206
 20
-92.8667351672
 10
296.6179595415
 20
-92.7071936939
 10
297.318748016
 20
-92.6668485775
 10
297.9764097701
 20
-92.7462881406
 10
298.5813546147
 20
-92.9443539754
 10
299.1247610915
 20
-93.2581578362
 10
299.5987051105
 20
-93.683123756
 10
299.9962755007
 20
-94.2130547747
 10
300.3116747905
 20
-94.8402233048
 10
300.5403037482
 20
-95.5554838169
 10
300.6788284486
 20
-96.348406202
 10
300.7252288897
 20
-97.2074278663
  0
LWPOLYLINE
  5
10D
330
1F
100
AcDbEntity
  8
0
  6
Continuous
 62
     7
370
    25
100
AcDbPolyline
 90
       53
 70
   128
 43
0.0
 10
300.7252288897
 20
-16.6965038144
 10
300.6788284486
 20
-17.6090982877
 10
300.5403037482
 20
-18.5619578876
 10
300.3116747906
 20
-19.5411877754
 10
299.9962755007
 20
-20.5325085744
 10
299.5987051105
 20
-21.521464595
 10
299.1247610915
 20
-22.4936346316
 10
298.5813546147
 20
-23.4348422558
 10
297.9764097701
 20
-24.3313625411
 10
297.318748016
 20
-25.1701222029
 10
296.6179595415
 20
-25.9388902367
 10
295.8842634206
 20
-26.6264562734
 10
295.128358595
 20
-27.2227940519
 10
294.361267859
 20
-27.7192076246
 10
293.5941771231
 20
-28.1084581637
 10
292.8382722975
 20
-28.3848695199
 10
292.1045761766
 20
-28.5444109932
 10
291.4037877021
 20
-28.5847561096
 10
290.7461259479
 20
-28.5053165465
 10
290.1411811034
 20
-28.3072507117
 10
289.5977746266
 20
-27.9934468509
 10
289.1238306076
 20
-27.5684809312
 10
288.7262602174
 20
-27.0385499124
 10
288.4108609275
 20
-26.4113813823
 10
288.1822319699
 20
-25.6961208703
 10
288.0437072695
 20
-24.9031984851
 10
287.9973068284
 20
-24.0441768208
 10
288.0437072695
 20
-23.1315823475
 10
288.1822319699
 20
-22.1787227476
 10
288.4108609275
 20
-21.1994928598
 10
288.7262602174
 20
-20.2081720608
 10
289.1238306076
 20
-19.2192160402
 10
289.5977746266
 20
-18.2470460036
 10
290.1411811034
 20
-17.3058383794
 10
290.7461259479
 20
-16.4093180941
 10
291.4037877021
 20
-15.5705584322
 10
292.1045761766
 20
-14.8017903985
 10
292.8382722975
 20
-14.1142243618
 10
293.5941771231
 20
-13.5178865833
 10
294.361267859
 20
-13.0214730106
 10
295.128358595
 20
-12.6322224715
 10
295.8842634206
 20
-12.3558111153
 10
296.6179595415
 20
-12.196269642
 10
297.318748016
 20
-12.1559245256
 10
297.9764097701
 20
-12.2353640886
 10
298.5813546147
 20
-12.4334299235
 10
299.1247610915
 20
-12.7472337843
 10
299.5987051105
 20
-13.172199704
 10
299.9962755007
 20
-13.7021307227
 10
300.3116747906
 20
-14.3292992528
 10
300.5403037482
 20
-15.0445597649
 10
300.6788284486
 20
-15.8374821501
 10
300.7252288897
 20
-16.6965038144
  0
LWPOLYLINE
  5
10E
330
1F
100
AcDbEntity
  8
0
  6
Continuous
 62
     7
370
    25
100
AcDbPolyline
 90
       99
 70
   128
 43
0.0
 10
316.988684857
 20
-47.5632725544
 10
316.942194402
 20
-49.2642213049
 10
316.8029140762
 20
-51.011857229
 10
316.5714162125
 20
-52.7989989157
 10
316.248652085
 20
-54.6183026165
 10
315.835948001
 20
-56.4622924223
 10
315.3349998499
 20
-58.3233909835
 10
314.7478661353
 20
-60.1939506468
 10
314.0769595154
 20
-62.0662848813
 10
313.3250368895
 20
-63.9326998642
 10
312.4951880689
 20
-65.7855260957
 10
311.5908230805
 20
-67.6171499157
 10
310.6156581539
 20
-69.4200447888
 10
309.5737004511
 20
-71.1868022333
 10
308.4692315997
 20
-72.910162264
 10
307.3067900991
 20
-74.5830432248
 10
306.0911526709
 20
-76.198570889
 10
304.8273146299
 20
-77.7501067068
 10
303.5204693577
 20
-79.2312750849
 10
302.175986962
 20
-80.6359895847
 10
300.7993922092
 20
-81.9584779329
 10
299.3963418225
 20
-83.1933057412
 10
297.9726012368
 20
-84.3353988374
 10
296.5340209077
 20
-85.3800641159
 10
295.0865122702
 20
-86.323008823
 10
293.6360234479
 20
-87.1603581966
 10
292.1885148104
 20
-87.8886713886
 10
290.7499344813
 20
-88.5049556038
 10
289.3261938956
 20
-89.0066783983
 10
287.9231435089
 20
-89.3917780853
 10
286.5465487561
 20
-89.6586722077
 10
285.2020663604
 20
-89.8062640403
 10
283.8952210882
 20
-89.8339470966
 10
282.6313830472
 20
-89.741607621
 10
281.415745619
 20
-89.5296250562
 10
280.2533041184
 20
-89.1988704841
 10
279.148835267
 20
-88.750703046
 10
278.1068775642
 20
-88.1869643581
 10
277.1317126376
 20
-87.5099709437
 10
276.2273476492
 20
-86.7225047139
 10
275.3974988286
 20
-85.8278015363
 10
274.6455762027
 20
-84.8295379383
 10
273.9746695828
 20
-83.7318159989
 10
273.3875358682
 20
-82.5391464933
 10
272.8865877171
 20
-81.2564303561
 10
272.4738836331
 20
-79.8889385432
 10
272.1511195056
 20
-78.4422903717
 10
271.9196216418
 20
-76.9224304293
 10
271.7803413161
 20
-75.3356041464
 10
271.7338508611
 20
-73.6883321327
 10
271.7803413161
 20
-71.9873833822
 10
271.9196216418
 20
-70.2397474582
 10
272.1511195056
 20
-68.4526057715
 10
272.4738836331
 20
-66.6333020706
 10
272.8865877171
 20
-64.7893122648
 10
273.3875358682
 20
-62.9282137036
 10
273.9746695828
 20
-61.0576540403
 10
274.6455762027
 20
-59.1853198058
 10
275.3974988286
 20
-57.318904823
 10
276.2273476492
 20
-55.4660785914
 10
277.1317126376
 20
-53.6344547715
 10
278.1068775642
 20
-51.8315598983
 10
279.148835267
 20
-50.0648024538
 10
280.2533041184
 20
-48.3414424231
 10
281.415745619
 20
-46.6685614623
 10
282.6313830472
 20
-45.0530337982
 10
283.8952210882
 20
-43.5014979803
 10
285.2020663604
 20
-42.0203296022
 10
286.5465487561
 20
-40.6156151024
 10
287.9231435089
 20
-39.2931267543
 10
289.3261938956
 20
-38.0582989459
 10
290.7499344813
 20
-36.9162058497
 10
292.1885148104
 20
-35.8715405712
 10
293.6360234479
 20
-34.9285958641
 10
295.0865122702
 20
-34.0912464905
 10
296.5340209077
 20
-33.3629332985
 10
297.9726012368
 20
-32.7466490833
 10
299.3963418225
 20
-32.2449262889
 10
300.7993922092
 20
-31.8598266018
 10
302.175986962
 20
-31.5929324794
 10
303.5204693577
 20
-31.4453406468
 10
304.8273146299
 20
-31.4176575905
 10
306.0911526709
 20
-31.5099970661
 10
307.3067900991
 20
-31.7219796309
 10
308.4692315997
 20
-32.0527342031
 10
309.5737004511
 20
-32.5009016411
 10
310.6156581539
 20
-33.064640329
 10
311.5908230805
 20
-33.7416337434
 10
312.4951880689
 20
-34.5290999732
 10
313.3250368895
 20
-35.4238031508
 10
314.0769595154
 20
-36.4220667489
 10
314.7478661353
 20
-37.5197886882
 10
315.3349998499
 20
-38.7124581938
 10
315.835948001
 20
-39.995174331
 10
316.248652085
 20
-41.3626661439
 10
316.5714162125
 20
-42.8093143154
 10
316.8029140762
 20
-44.3291742578
 10
316.942194402
 20
-45.9160005407
 10
316.988684857
 20
-47.5632725544
  0
LWPOLYLINE
  5
10F
330
1F
100
AcDbEntity
  8
0
  6
Continuous
 62
     7
370
    25
100
AcDbPolyline
 90
       53
 70
   128
 43
0.0
 10
335.5855932022
 20
-36.8275058839
 10
335.5391927611
 20
-37.7401003572
 10
335.4006680607
 20
-38.6929599571
 10
335.172039103
 20
-39.6721898449
 10
334.8566398132
 20
-40.6635106439
 10
334.459069423
 20
-41.6524666646
 10
333.9851254039
 20
-42.6246367011
 10
333.4417189271
 20
-43.5658443253
 10
332.8367740826
 20
-44.4623646106
 10
332.1791123285
 20
-45.3011242725
 10
331.478323854
 20
-46.0698923063
 10
330.7446277331
 20
-46.7574583429
 10
329.9887229075
 20
-47.3537961214
 10
329.2216321715
 20
-47.8502096941
 10
328.4545414356
 20
-48.2394602332
 10
327.69863661
 20
-48.5158715894
 10
326.9649404891
 20
-48.6754130627
 10
326.2641520146
 20
-48.7157581792
 10
325.6064902604
 20
-48.6363186161
 10
325.0015454159
 20
-48.4382527812
 10
324.4581389391
 20
-48.1244489205
 10
323.9841949201
 20
-47.6994830007
 10
323.5866245299
 20
-47.169551982
 10
323.27122524
 20
-46.5423834519
 10
323.0425962824
 20
-45.8271229398
 10
322.904071582
 20
-45.0342005547
 10
322.8576711409
 20
-44.1751788903
 10
322.904071582
 20
-43.262584417
 10
323.0425962824
 20
-42.3097248171
 10
323.27122524
 20
-41.3304949293
 10
323.5866245299
 20
-40.3391741303
 10
323.9841949201
 20
-39.3502181097
 10
324.4581389391
 20
-38.3780480731
 10
325.0015454159
 20
-37.4368404489
 10
325.6064902604
 20
-36.5403201636
 10
326.2641520146
 20
-35.7015605018
 10
326.9649404891
 20
-34.932792468
 10
327.69863661
 20
-34.2452264313
 10
328.4545414356
 20
-33.6488886528
 10
329.2216321715
 20
-33.1524750802
 10
329.9887229075
 20
-32.763224541
 10
330.7446277331
 20
-32.4868131848
 10
331.478323854
 20
-32.3272717115
 10
332.1791123285
 20
-32.2869265951
 10
332.8367740826
 20
-32.3663661582
 10
333.4417189271
 20
-32.564431993
 10
333.9851254039
 20
-32.8782358538
 10
334.459069423
 20
-33.3032017736
 10
334.8566398132
 20
-33.8331327923
 10
335.172039103
 20
-34.4603013224
 10
335.4006680607
 20
-35.1755618345
 10
335.5391927611
 20
-35.9684842196
 10
335.5855932022
 20
-36.8275058839
  0
LWPOLYLINE
  5
110
330
1F
100
AcDbEntity
  8
0
  6
Continuous
 62
     7
370
    25
100
AcDbPolyline
 90
       53
 70
   128
 43
0.0
 10
265.8648645772
 20
-77.0764257968
 10
265.8184641361
 20
-77.9890202701
 10
265.6799394357
 20
-78.94187987
 10
265.4513104781
 20
-79.9211097578
 10
265.1359111882
 20
-80.9124305568
 10
264.738340798
 20
-81.9013865774
 10
264.264396779
 20
-82.873556614
 10
263.7209903022
 20
-83.8147642382
 10
263.1160454577
 20
-84.7112845235
 10
262.4583837035
 20
-85.5500441853
 10
261.757595229
 20
-86.3188122191
 10
261.0238991081
 20
-87.0063782558
 10
260.2679942825
 20
-87.6027160343
 10
259.5009035466
 20
-88.099129607
 10
258.7338128106
 20
-88.4883801461
 10
257.977907985
 20
-88.7647915023
 10
257.2442118641
 20
-88.9243329756
 10
256.5434233896
 20
-88.964678092
 10
255.8857616355
 20
-88.8852385289
 10
255.2808167909
 20
-88.6871726941
 10
254.7374103141
 20
-88.3733688333
 10
254.2634662951
 20
-87.9484029135
 10
253.8658959049
 20
-87.4184718948
 10
253.5504966151
 20
-86.7913033647
 10
253.3218676574
 20
-86.0760428527
 10
253.183342957
 20
-85.2831204675
 10
253.1369425159
 20
-84.4240988032
 10
253.183342957
 20
-83.5115043299
 10
253.3218676574
 20
-82.55864473
 10
253.5504966151
 20
-81.5794148422
 10
253.8658959049
 20
-80.5880940432
 10
254.2634662951
 20
-79.5991380226
 10
254.7374103141
 20
-78.626967986
 10
255.2808167909
 20
-77.6857603618
 10
255.8857616355
 20
-76.7892400765
 10
256.5434233896
 20
-75.9504804146
 10
257.2442118641
 20
-75.1817123809
 10
257.977907985
 20
-74.4941463442
 10
258.7338128106
 20
-73.8978085657
 10
259.5009035466
 20
-73.401394993
 10
260.2679942825
 20
-73.0121444539
 10
261.0238991081
 20
-72.7357330977
 10
261.757595229
 20
-72.5761916244
 10
262.4583837035
 20
-72.535846508
 10
263.1160454577
 20
-72.615286071
 10
263.7209903022
 20
-72.8133519059
 10
264.264396779
 20
-73.1271557667
 10
264.738340798
 20
-73.5521216864
 10
265.1359111882
 20
-74.0820527051
 10
265.4513104781
 20
-74.7092212352
 10
265.6799394357
 20
-75.4244817473
 10
265.8184641361
 20
-76.2174041325
 10
265.8648645772
 20
-77.0764257968
  0
LINE
  5
111
330
1F
100
AcDbEntity
  8
0
  6
Continuous
 62
     7
370
    25
100
AcDbLine
 10
310.6218663526
 20
-34.2183230213
 30
0.0
 11
310.5671149961
 21
-34.1864916657
 31
0.0
  0
ARC
  5
112
330
1F
100
AcDbEntity
  8
0
  6
Continuous
 62
     7
370
    25
100
AcDbCircle
 10
284.7656223195
 20
-78.8809192703
 30
0.0
 40
10.39253628207972
100
AcDbArc
 50
231.3494974066
 51
248.8790027734
  0
LWPOLYLINE
  5
113
330
1F
100
AcDbEntity
  8
0
  6
Continuous
 62
     1
370
    25
100
AcDbPolyline
 90
       53
 70
   128
 43
0.0
 10
342.0909755891
 20
-33.8884366814
 10
342.0449511144
 20
-36.3168751795
 10
341.9069677851
 20
-38.7936986227
 10
341.6772957103
 20
-41.3140585127
 10
341.3563844836
 20
-43.8730211268
 10
340.9448623041
 20
-46.4655771755
 10
340.4435347455
 20
-49.0866516085
 10
339.8533831803
 20
-51.7311135495
 10
339.1755628577
 20
-54.3937863402
 10
338.4114006429
 20
-57.0694576734
 10
337.5623924193
 20
-59.752889797
 10
336.6302001604
 20
-62.4388297665
 10
335.6166486763
 20
-65.1220197282
 10
334.5237220416
 20
-67.7972072119
 10
333.3535597115
 20
-70.4591554124
 10
332.1084523338
 20
-73.1026534411
 10
330.7908372646
 20
-75.7225265265
 10
329.4032937973
 20
-78.313646144
 10
327.9485381134
 20
-80.8709400552
 10
326.4294179654
 20
-83.3894022372
 10
324.8489071024
 20
-85.8641026821
 10
323.2100994486
 20
-88.2901970474
 10
321.516203047
 20
-90.6629361397
 10
319.7705337792
 20
-92.9776752105
 10
317.9765088749
 20
-95.2298830497
 10
316.1376402221
 20
-97.4151508544
 10
314.2575274925
 20
-99.5292008604
 10
312.3398510951
 20
-101.5678947155
 10
310.3883649715
 20
-103.5272415807
 10
308.4068892473
 20
-105.4034059426
 10
306.3993027544
 20
-107.1927151213
 10
304.3695354377
 20
-108.8916664601
 10
302.3215606619
 20
-110.4969341819
 10
300.2593874338
 20
-112.0053758998
 10
298.1870525544
 20
-113.4140387682
 10
296.1086127166
 20
-114.7201652636
 10
294.0281365639
 20
-115.9211985818
 10
291.949696726
 20
-117.0147876439
 10
289.8773618467
 20
-117.9987916978
 10
287.8151886186
 20
-118.8712845094
 10
285.7672138428
 20
-119.6305581331
 10
283.737446526
 20
-120.275126255
 10
281.7298600332
 20
-120.8037271029
 10
279.748384309
 20
-121.2153259157
 10
277.7968981854
 20
-121.5091169694
 10
275.8792217879
 20
-121.6845251543
 10
273.9991090583
 20
-121.7412071006
 10
272.1602404055
 20
-121.6790518507
 10
270.3662155013
 20
-121.4981810764
 10
268.6205462335
 20
-121.1989488408
 10
266.9266498319
 20
-120.781940905
 10
265.2878421781
 20
-120.2479735816
 10
264.9389217528
 20
-120.1164131401
  0
LWPOLYLINE
  5
114
330
1F
100
AcDbEntity
  8
0
  6
Continuous
 62
     1
370
    25
100
AcDbPolyline
 90
       17
 70
   128
 43
0.0
 10
331.0541554965
 20
-5.3075500358
 10
332.1084523338
 20
-6.1997959434
 10
333.3535597115
 20
-7.4057235934
 10
334.5237220416
 20
-8.7166311253
 10
335.6166486763
 20
-10.1299523762
 10
336.6302001604
 20
-11.6429207032
 10
337.5623924193
 20
-13.2525744
 10
338.4114006429
 20
-14.9557624936
 10
339.1755628577
 20
-16.7491509136
 10
339.8533831803
 20
-18.6292290178
 10
340.4435347455
 20
-20.5923164651
 10
340.9448623041
 20
-22.6345704195
 10
341.3563844836
 20
-24.7519930731
 10
341.6772957103
 20
-26.9404394716
 10
341.9069677851
 20
-29.1956256284
 10
342.0449511144
 20
-31.5131369107
 10
342.0909755891
 20
-33.8884366814
  0
LWPOLYLINE
  5
115
330
1F
100
AcDbEntity
  8
0
  6
Continuous
 62
     1
370
    25
100
AcDbPolyline
 90
       17
 70
   128
 43
0.0
 10
353.4046840881
 20
-40.4197015759
 10
353.3586596134
 20
-38.0444018053
 10
353.2206762841
 20
-35.726890523
 10
352.9910042092
 20
-33.4717043662
 10
352.6700929826
 20
-31.2832579677
 10
352.2585708031
 20
-29.1658353141
 10
351.7572432445
 20
-27.1235813597
 10
351.1670916793
 20
-25.1604939124
 10
350.4892713567
 20
-23.2804158082
 10
349.7251091419
 20
-21.4870273882
 10
348.8761009183
 20
-19.7838392945
 10
347.9439086594
 20
-18.1741855978
 10
346.9303571753
 20
-16.6612172707
 10
345.8374305406
 20
-15.2478960199
 10
344.6672682105
 20
-13.9369884879
 10
343.4221608328
 20
-12.731060838
 10
342.5265983857
 20
-11.9662742756
  0
LWPOLYLINE
  5
116
330
1F
100
AcDbEntity
  8
0
  6
Continuous
 62
     1
370
    25
100
AcDbPolyline
 90
       53
 70
   128
 43
0.0
 10
276.148359917
 20
-126.6070879264
 10
276.601550677
 20
-126.7792384762
 10
278.2403583308
 20
-127.3132057996
 10
279.9342547325
 20
-127.7302137354
 10
281.6799240002
 20
-128.029445971
 10
283.4739489045
 20
-128.2103167452
 10
285.3128175573
 20
-128.2724719952
 10
287.1929302869
 20
-128.2157900489
 10
289.1106066843
 20
-128.040381864
 10
291.062092808
 20
-127.7465908103
 10
293.0435685322
 20
-127.3349919975
 10
295.051155025
 20
-126.8063911496
 10
297.0809223418
 20
-126.1618230276
 10
299.1288971176
 20
-125.402549404
 10
301.1910703457
 20
-124.5300565924
 10
303.263405225
 20
-123.5460525385
 10
305.3418450629
 20
-122.4524634764
 10
307.4223212156
 20
-121.2514301582
 10
309.5007610534
 20
-119.9453036628
 10
311.5730959328
 20
-118.5366407943
 10
313.6352691608
 20
-117.0281990765
 10
315.6832439367
 20
-115.4229313547
 10
317.7130112534
 20
-113.7239800159
 10
319.7205977463
 20
-111.9346708372
 10
321.7020734704
 20
-110.0585064753
 10
323.6535595941
 20
-108.0991596101
 10
325.5712359915
 20
-106.060465755
 10
327.4513487211
 20
-103.946415749
 10
329.2902173739
 20
-101.7611479442
 10
331.0842422782
 20
-99.5089401051
 10
332.8299115459
 20
-97.1942010342
 10
334.5238079476
 20
-94.821461942
 10
336.1626156014
 20
-92.3953675767
 10
337.7431264644
 20
-89.9206671318
 10
339.2622466124
 20
-87.4022049498
 10
340.7170022963
 20
-84.8449110386
 10
342.1045457636
 20
-82.2537914211
 10
343.4221608328
 20
-79.6339183357
 10
344.6672682105
 20
-76.990420307
 10
345.8374305406
 20
-74.3284721065
 10
346.9303571753
 20
-71.6532846228
 10
347.9439086594
 20
-68.970094661
 10
348.8761009183
 20
-66.2841546916
 10
349.7251091419
 20
-63.600722568
 10
350.4892713567
 20
-60.9250512348
 10
351.1670916793
 20
-58.2623784441
 10
351.7572432445
 20
-55.617916503
 10
352.2585708031
 20
-52.9968420701
 10
352.6700929826
 20
-50.4042860214
 10
352.9910042092
 20
-47.8453234073
 10
353.2206762841
 20
-45.3249635172
 10
353.3586596134
 20
-42.8481400741
 10
353.4046840881
 20
-40.4197015759
  0
LWPOLYLINE
  5
117
330
1F
100
AcDbEntity
  8
0
  6
Continuous
 62
     1
370
    25
100
AcDbPolyline
 90
       26
 70
   128
 43
0.0
 10
333.9381465073
 20
-33.9868014743
 10
333.4557298879
 20
-33.7662794079
 10
332.8612101557
 20
-33.6305951237
 10
332.2185393274
 20
-33.6144310189
 10
331.5382700403
 20
-33.7180525076
 10
330.8315722972
 20
-33.939758128
 10
330.1100500555
 20
-34.2759074798
 10
329.3855506906
 20
-34.720981
 10
328.6699704619
 20
-35.2676705936
 10
327.975059177
 20
-35.9069996328
 10
327.31222726
 20
-36.6284703522
 10
326.6923583927
 20
-37.4202362227
 10
326.1256308047
 20
-38.2692964706
 10
325.6213501474
 20
-39.16170955
 10
325.1877966951
 20
-40.0828220629
 10
324.8320893837
 20
-41.0175093672
 10
324.5600689172
 20
-41.9504239234
 10
324.3762018644
 20
-42.8662473
 10
324.283507317
 20
-43.7499417027
 10
324.283507317
 20
-44.5869968938
 10
324.3762018644
 20
-45.3636684501
 10
324.5600689172
 20
-46.0672034462
 10
324.8320893837
 20
-46.6860498569
 10
325.1877966951
 20
-47.2100462412
 10
325.6213501474
 20
-47.6305885931
 10
325.9461953648
 20
-47.8477427109
  0
LWPOLYLINE
  5
118
330
1F
100
AcDbEntity
  8
0
  6
Continuous
 62
     1
370
    25
100
AcDbPolyline
 90
       26
 70
   128
 43
0.0
 10
299.0777821948
 20
-94.3667234567
 10
298.5953655754
 20
-94.1462013903
 10
298.0008458432
 20
-94.0105171061
 10
297.3581750149
 20
-93.9943530012
 10
296.6779057278
 20
-94.09797449
 10
295.9712079847
 20
-94.3196801104
 10
295.249685743
 20
-94.6558294622
 10
294.5251863781
 20
-95.1009029824
 10
293.8096061494
 20
-95.647592576
 10
293.1146948645
 20
-96.2869216152
 10
292.4518629475
 20
-97.0083923346
 10
291.8319940802
 20
-97.8001582051
 10
291.2652664922
 20
-98.649218453
 10
290.7609858349
 20
-99.5416315324
 10
290.3274323826
 20
-100.4627440453
 10
289.9717250712
 20
-101.3974313496
 10
289.6997046048
 20
-102.3303459057
 10
289.5158375519
 20
-103.2461692824
 10
289.4231430045
 20
-104.1298636851
 10
289.4231430045
 20
-104.9669188762
 10
289.5158375519
 20
-105.7435904325
 10
289.6997046048
 20
-106.4471254286
 10
289.9717250712
 20
-107.0659718393
 10
290.3274323826
 20
-107.5899682236
 10
290.7609858349
 20
-108.0105105755
 10
291.0858310523
 20
-108.2276646933
  0
LWPOLYLINE
  5
119
330
1F
100
AcDbEntity
  8
0
  6
Continuous
 62
     1
370
    25
100
AcDbPolyline
 90
       49
 70
   128
 43
0.0
 10
310.5671149961
 20
-34.1864916657
 10
309.6654429506
 20
-33.7232813108
 10
308.5762937706
 20
-33.3005409161
 10
307.4304876835
 20
-32.9941243136
 10
306.2328305981
 20
-32.8053167212
 10
304.9883459046
 20
-32.7349100634
 10
303.7022534041
 20
-32.7831996503
 10
302.3799474156
 20
-32.9499829385
 10
301.0269741499
 20
-33.2345603811
 10
299.6490084471
 20
-33.6357383612
 10
298.2518299743
 20
-34.1518341991
 10
296.8412989834
 20
-34.7806832093
 10
295.4233317317
 20
-35.5196477807
 10
294.0038756667
 20
-36.3656284391
 10
292.5888844802
 20
-37.3150768474
 10
291.1842931372
 20
-38.3640106892
 10
289.7959929818
 20
-39.5080303714
 10
288.4298070274
 20
-40.7423374779
 10
287.0914655326
 20
-42.0617548957
 10
285.7865819667
 20
-43.4607485296
 10
284.520629465
 20
-44.9334505141
 10
283.2989178722
 20
-46.4736838254
 10
282.1265714712
 20
-48.0749881896
 10
281.0085074903
 20
-49.7306471798
 10
279.9494154784
 20
-51.4337163867
 10
278.9537376354
 20
-53.1770525463
 10
278.0256501803
 20
-54.9533435009
 10
277.1690458343
 20
-56.7551388688
 10
276.3875174937
 20
-58.5748812941
 10
275.6843431601
 20
-60.4049381447
 10
275.062472191
 20
-62.2376335263
 10
274.5245129292
 20
-64.0652804773
 10
274.072721763
 20
-65.8802132114
 10
273.7089936615
 20
-67.67481927
 10
273.4348542267
 20
-69.4415714516
 10
273.2514532946
 20
-71.1730593835
 10
273.1595601127
 20
-72.8620206036
 10
273.1595601127
 20
-74.5013710216
 10
273.2514532946
 20
-76.0842346322
 10
273.4348542267
 20
-77.6039723552
 10
273.7089936615
 20
-79.0542098825
 10
274.072721763
 20
-80.428864414
 10
274.5245129292
 20
-81.7221701707
 10
275.062472191
 20
-82.928702579
 10
275.6843431601
 20
-84.0434010225
 10
276.3875174937
 20
-85.0615900686
 10
277.1690458343
 20
-85.9789990787
 10
278.0256501803
 20
-86.7917801205
 10
278.2747744848
 20
-86.9971810183
  0
LWPOLYLINE
  5
11A
330
1F
100
AcDbEntity
  8
0
  6
Continuous
 62
     1
370
    25
100
AcDbPolyline
 90
       39
 70
   128
 43
0.0
 10
286.2527070524
 20
-89.2067824121
 10
285.8382214282
 20
-88.2534350653
 10
285.386430262
 20
-86.9601293085
 10
285.0227021605
 20
-85.5854747771
 10
284.7485627256
 20
-84.1352372498
 10
284.5651617936
 20
-82.6154995267
 10
284.4732686116
 20
-81.0326359162
 10
284.4732686116
 20
-79.3932854982
 10
284.5651617936
 20
-77.7043242781
 10
284.7485627256
 20
-75.9728363462
 10
285.0227021605
 20
-74.2060841646
 10
285.386430262
 20
-72.411478106
 10
285.8382214282
 20
-70.5965453719
 10
286.37618069
 20
-68.7688984208
 10
286.9980516591
 20
-66.9362030393
 10
287.7012259927
 20
-65.1061461887
 10
288.4827543333
 20
-63.2864037633
 10
289.3393586793
 20
-61.4846083954
 10
290.2674461344
 20
-59.7083174409
 10
291.2631239774
 20
-57.9649812813
 10
292.3222159893
 20
-56.2619120744
 10
293.4402799702
 20
-54.6062530842
 10
294.6126263712
 20
-53.00494872
 10
295.834337964
 20
-51.4647154087
 10
297.1002904657
 20
-49.9920134242
 10
298.4051740316
 20
-48.5930197903
 10
299.7435155264
 20
-47.2736023725
 10
301.1097014808
 20
-46.039295266
 10
302.4980016362
 20
-44.8952755838
 10
303.9025929792
 20
-43.846341742
 10
305.3175841657
 20
-42.8968933337
 10
306.7370402307
 20
-42.0509126753
 10
308.1550074824
 20
-41.3119481039
 10
309.5655384733
 20
-40.6830990936
 10
310.9627169461
 20
-40.1670032558
 10
312.3406826489
 20
-39.7658252757
 10
313.6936559146
 20
-39.4812478331
 10
315.0159619031
 20
-39.3144645449
 10
315.0688099645
 20
-39.3102018497
  0
LWPOLYLINE
  5
11B
330
1F
100
AcDbEntity
  8
0
  6
Continuous
 62
     1
370
    25
100
AcDbPolyline
 90
       26
 70
   128
 43
0.0
 10
299.0777821948
 20
-13.8557994047
 10
298.5953655754
 20
-13.6352773384
 10
298.0008458432
 20
-13.4995930541
 10
297.3581750149
 20
-13.4834289493
 10
296.6779057278
 20
-13.5870504381
 10
295.9712079847
 20
-13.8087560584
 10
295.249685743
 20
-14.1449054102
 10
294.5251863781
 20
-14.5899789304
 10
293.8096061494
 20
-15.1366685241
 10
293.1146948645
 20
-15.7759975632
 10
292.4518629475
 20
-16.4974682827
 10
291.8319940802
 20
-17.2892341532
 10
291.2652664922
 20
-18.1382944011
 10
290.7609858349
 20
-19.0307074805
 10
290.3274323826
 20
-19.9518199934
 10
289.9717250712
 20
-20.8865072977
 10
289.6997046048
 20
-21.8194218538
 10
289.5158375519
 20
-22.7352452305
 10
289.4231430045
 20
-23.6189396332
 10
289.4231430045
 20
-24.4559948242
 10
289.5158375519
 20
-25.2326663805
 10
289.6997046048
 20
-25.9362013766
 10
289.9717250712
 20
-26.5550477874
 10
290.3274323826
 20
-27.0790441717
 10
290.7609858349
 20
-27.4995865235
 10
291.0858310523
 20
-27.7167406414
  0
LWPOLYLINE
  5
11C
330
1F
100
AcDbEntity
  8
0
  6
Continuous
 62
     1
370
    25
100
AcDbPolyline
 90
       26
 70
   128
 43
0.0
 10
264.2174178823
 20
-74.2357213871
 10
263.7350012629
 20
-74.0151993208
 10
263.1404815307
 20
-73.8795150365
 10
262.4978107024
 20
-73.8633509317
 10
261.8175414153
 20
-73.9669724205
 10
261.1108436722
 20
-74.1886780408
 10
260.3893214305
 20
-74.5248273926
 10
259.6648220656
 20
-74.9699009128
 10
258.9492418369
 20
-75.5165905065
 10
258.254330552
 20
-76.1559195456
 10
257.591498635
 20
-76.8773902651
 10
256.9716297677
 20
-77.6691561356
 10
256.4049021797
 20
-78.5182163835
 10
255.9006215224
 20
-79.4106294629
 10
255.4670680701
 20
-80.3317419757
 10
255.1113607587
 20
-81.2664292801
 10
254.8393402923
 20
-82.1993438362
 10
254.6554732394
 20
-83.1151672129
 10
254.562778692
 20
-83.9988616156
 10
254.562778692
 20
-84.8359168066
 10
254.6554732394
 20
-85.6125883629
 10
254.8393402923
 20
-86.316123359
 10
255.1113607587
 20
-86.9349697697
 10
255.4670680701
 20
-87.4589661541
 10
255.9006215224
 20
-87.8795085059
 10
256.2254667398
 20
-88.0966626238
  0
ENDSEC
  0
SECTION
  2
OBJECTS
  0
DICTIONARY
  5
C
330
0
100
AcDbDictionary
281
     1
  3
ACAD_GROUP
350
D
  3
ACAD_LAYOUT
350
1A
  3
ACAD_MLINESTYLE
350
17
  3
ACAD_PLOTSETTINGS
350
19
  3
ACAD_PLOTSTYLENAME
350
E
  3
ACAD_SCALELIST
350
47
  3
DWGPROPS
350
11D
  0
DICTIONARY
  5
D
102
{ACAD_REACTORS
330
C
102
}
330
C
100
AcDbDictionary
281
     1
  0
DICTIONARY
  5
1A
102
{ACAD_REACTORS
330
C
102
}
330
C
100
AcDbDictionary
281
     1
  3
Layout1
350
1E
  3
Layout2
350
26
  3
Model
350
22
  0
DICTIONARY
  5
17
102
{ACAD_REACTORS
330
C
102
}
330
C
100
AcDbDictionary
281
     1
  3
Standard
350
18
  0
DICTIONARY
  5
19
102
{ACAD_REACTORS
330
C
102
}
330
C
100
AcDbDictionary
281
     1
  0
ACDBDICTIONARYWDFLT
  5
E
102
{ACAD_REACTORS
330
C
102
}
330
C
100
AcDbDictionary
281
     1
  3
Normal
350
F
100
AcDbDictionaryWithDefault
340
F
  0
DICTIONARY
  5
47
102
{ACAD_REACTORS
330
C
102
}
330
C
100
AcDbDictionary
281
     1
  3
A0
350
48
  3
A1
350
49
  3
A2
350
4A
  3
A3
350
4B
  3
A4
350
4C
  3
A5
350
4D
  3
A6
350
4E
  3
A7
350
4F
  3
A8
350
50
  3
A9
350
51
  3
B0
350
52
  3
B1
350
53
  3
B2
350
54
  3
B3
350
55
  3
B4
350
56
  3
B5
350
57
  3
B6
350
58
  3
B7
350
59
  3
B8
350
5A
  3
B9
350
5B
  3
C0
350
5C
  3
C1
350
5D
  3
C2
350
5E
  3
C3
350
5F
  3
C4
350
60
  3
C5
350
61
  3
C6
350
62
  3
C7
350
63
  3
C8
350
64
  3
C9
350
65
  3
D0
350
66
  3
D1
350
67
  3
D2
350
68
  0
XRECORD
  5
11D
102
{ACAD_REACTORS
330
C
102
}
330
C
100
AcDbXrecord
280
     1
  1
DWGPROPS COOKIE
  2

  3

  4

  6

  7

  8
b.kav
  9

300
=
301
=
302
=
303
=
304
=
305
=
306
=
307
=
308
=
309
=
 40
0.0
 41
2459741.463645278
 42
2459741.463646875
  1

 90
        0
  0
LAYOUT
  5
1E
102
{ACAD_REACTORS
330
1A
102
}
330
1A
100
AcDbPlotSettings
  1

  2
none_device
  4

  6

 40
0.0
 41
0.0
 42
0.0
 43
0.0
 44
0.0
 45
0.0
 46
0.0
 47
0.0
 48
0.0
 49
0.0
140
0.0
141
0.0
142
1.0
143
1.0
 70
   688
 72
     1
 73
     0
 74
     5
  7

 75
    16
147
1.0
148
0.0
149
0.0
100
AcDbLayout
  1
Layout1
 70
     1
 71
     1
 10
0.0
 20
0.0
 11
420.0
 21
297.0
 12
0.0
 22
0.0
 32
0.0
 14
1.0000000000E+20
 24
1.0000000000E+20
 34
1.0000000000E+20
 15
-1.0000000000E+20
 25
-1.0000000000E+20
 35
-1.0000000000E+20
146
0.0
 13
0.0
 23
0.0
 33
0.0
 16
1.0
 26
0.0
 36
0.0
 17
0.0
 27
1.0
 37
0.0
 76
     0
330
1B
  0
LAYOUT
  5
26
102
{ACAD_REACTORS
330
1A
102
}
330
1A
100
AcDbPlotSettings
  1

  2
none_device
  4

  6

 40
0.0
 41
0.0
 42
0.0
 43
0.0
 44
0.0
 45
0.0
 46
0.0
 47
0.0
 48
0.0
 49
0.0
140
0.0
141
0.0
142
1.0
143
1.0
 70
   688
 72
     1
 73
     0
 74
     5
  7

 75
    16
147
1.0
148
0.0
149
0.0
100
AcDbLayout
  1
Layout2
 70
     1
 71
     2
 10
0.0
 20
0.0
 11
0.0
 21
0.0
 12
0.0
 22
0.0
 32
0.0
 14
0.0
 24
0.0
 34
0.0
 15
0.0
 25
0.0
 35
0.0
146
0.0
 13
0.0
 23
0.0
 33
0.0
 16
1.0
 26
0.0
 36
0.0
 17
0.0
 27
1.0
 37
0.0
 76
     0
330
23
  0
LAYOUT
  5
22
102
{ACAD_REACTORS
330
1A
102
}
330
1A
100
AcDbPlotSettings
  1

  2
none_device
  4
Letter_(8.50_x_11.00_Inches)
  6

 40
6.35
 41
6.35
 42
6.35000508
 43
6.35000508
 44
215.9
 45
279.4
 46
0.0
 47
0.0
 48
0.0
 49
0.0
140
0.0
141
0.0
142
1.0
143
1.0
 70
  1712
 72
     1
 73
     0
 74
     0
  7

 75
     0
147
1.0
148
0.0
149
0.0
100
AcDbLayout
  1
Model
 70
     1
 71
     0
 10
0.0
 20
0.0
 11
279.4
 21
215.9
 12
0.0
 22
0.0
 32
0.0
 14
0.0
 24
0.0
 34
0.0
 15
279.4
 25
215.9
 35
0.0
146
0.0
 13
0.0
 23
0.0
 33
0.0
 16
1.0
 26
0.0
 36
0.0
 17
0.0
 27
1.0
 37
0.0
 76
     0
330
1F
331
29
  0
MLINESTYLE
  5
18
102
{ACAD_REACTORS
330
17
102
}
330
17
100
AcDbMlineStyle
  2
Standard
 70
     0
  3

 62
   256
 51
90.0
 52
90.0
 71
     2
 49
0.5
 62
   256
  6
BYLAYER
 49
-0.5
 62
   256
  6
BYLAYER
  0
ACDBPLACEHOLDER
  5
F
102
{ACAD_REACTORS
330
E
102
}
330
E
  0
SCALE
  5
48
102
{ACAD_REACTORS
330
47
102
}
330
47
100
AcDbScale
 70
     0
300
1:1
140
1.0
141
1.0
290
     1
  0
SCALE
  5
49
102
{ACAD_REACTORS
330
47
102
}
330
47
100
AcDbScale
 70
     0
300
1:2
140
1.0
141
2.0
290
     0
  0
SCALE
  5
4A
102
{ACAD_REACTORS
330
47
102
}
330
47
100
AcDbScale
 70
     0
300
1:4
140
1.0
141
4.0
290
     0
  0
SCALE
  5
4B
102
{ACAD_REACTORS
330
47
102
}
330
47
100
AcDbScale
 70
     0
300
1:5
140
1.0
141
5.0
290
     0
  0
SCALE
  5
4C
102
{ACAD_REACTORS
330
47
102
}
330
47
100
AcDbScale
 70
     0
300
1:8
140
1.0
141
8.0
290
     0
  0
SCALE
  5
4D
102
{ACAD_REACTORS
330
47
102
}
330
47
100
AcDbScale
 70
     0
300
1:10
140
1.0
141
10.0
290
     0
  0
SCALE
  5
4E
102
{ACAD_REACTORS
330
47
102
}
330
47
100
AcDbScale
 70
     0
300
1:16
140
1.0
141
16.0
290
     0
  0
SCALE
  5
4F
102
{ACAD_REACTORS
330
47
102
}
330
47
100
AcDbScale
 70
     0
300
1:20
140
1.0
141
20.0
290
     0
  0
SCALE
  5
50
102
{ACAD_REACTORS
330
47
102
}
330
47
100
AcDbScale
 70
     0
300
1:30
140
1.0
141
30.0
290
     0
  0
SCALE
  5
51
102
{ACAD_REACTORS
330
47
102
}
330
47
100
AcDbScale
 70
     0
300
1:40
140
1.0
141
40.0
290
     0
  0
SCALE
  5
52
102
{ACAD_REACTORS
330
47
102
}
330
47
100
AcDbScale
 70
     0
300
1:50
140
1.0
141
50.0
290
     0
  0
SCALE
  5
53
102
{ACAD_REACTORS
330
47
102
}
330
47
100
AcDbScale
 70
     0
300
1:100
140
1.0
141
100.0
290
     0
  0
SCALE
  5
54
102
{ACAD_REACTORS
330
47
102
}
330
47
100
AcDbScale
 70
     0
300
2:1
140
2.0
141
1.0
290
     0
  0
SCALE
  5
55
102
{ACAD_REACTORS
330
47
102
}
330
47
100
AcDbScale
 70
     0
300
4:1
140
4.0
141
1.0
290
     0
  0
SCALE
  5
56
102
{ACAD_REACTORS
330
47
102
}
330
47
100
AcDbScale
 70
     0
300
8:1
140
8.0
141
1.0
290
     0
  0
SCALE
  5
57
102
{ACAD_REACTORS
330
47
102
}
330
47
100
AcDbScale
 70
     0
300
10:1
140
10.0
141
1.0
290
     0
  0
SCALE
  5
58
102
{ACAD_REACTORS
330
47
102
}
330
47
100
AcDbScale
 70
     0
300
100:1
140
100.0
141
1.0
290
     0
  0
SCALE
  5
59
102
{ACAD_REACTORS
330
47
102
}
330
47
100
AcDbScale
 70
     0
300
1/128" = 1'-0"
140
0.0078125
141
12.0
290
     0
  0
SCALE
  5
5A
102
{ACAD_REACTORS
330
47
102
}
330
47
100
AcDbScale
 70
     0
300
1/64" = 1'-0"
140
0.015625
141
12.0
290
     0
  0
SCALE
  5
5B
102
{ACAD_REACTORS
330
47
102
}
330
47
100
AcDbScale
 70
     0
300
1/32" = 1'-0"
140
0.03125
141
12.0
290
     0
  0
SCALE
  5
5C
102
{ACAD_REACTORS
330
47
102
}
330
47
100
AcDbScale
 70
     0
300
1/16" = 1'-0"
140
0.0625
141
12.0
290
     0
  0
SCALE
  5
5D
102
{ACAD_REACTORS
330
47
102
}
330
47
100
AcDbScale
 70
     0
300
3/32" = 1'-0"
140
0.09375
141
12.0
290
     0
  0
SCALE
  5
5E
102
{ACAD_REACTORS
330
47
102
}
330
47
100
AcDbScale
 70
     0
300
1/8" = 1'-0"
140
0.125
141
12.0
290
     0
  0
SCALE
  5
5F
102
{ACAD_REACTORS
330
47
102
}
330
47
100
AcDbScale
 70
     0
300
3/16" = 1'-0"
140
0.1875
141
12.0
290
     0
  0
SCALE
  5
60
102
{ACAD_REACTORS
330
47
102
}
330
47
100
AcDbScale
 70
     0
300
1/4" = 1'-0"
140
0.25
141
12.0
290
     0
  0
SCALE
  5
61
102
{ACAD_REACTORS
330
47
102
}
330
47
100
AcDbScale
 70
     0
300
3/8" = 1'-0"
140
0.375
141
12.0
290
     0
  0
SCALE
  5
62
102
{ACAD_REACTORS
330
47
102
}
330
47
100
AcDbScale
 70
     0
300
1/2" = 1'-0"
140
0.5
141
12.0
290
     0
  0
SCALE
  5
63
102
{ACAD_REACTORS
330
47
102
}
330
47
100
AcDbScale
 70
     0
300
3/4" = 1'-0"
140
0.75
141
12.0
290
     0
  0
SCALE
  5
64
102
{ACAD_REACTORS
330
47
102
}
330
47
100
AcDbScale
 70
     0
300
1" = 1'-0"
140
1.0
141
12.0
290
     0
  0
SCALE
  5
65
102
{ACAD_REACTORS
330
47
102
}
330
47
100
AcDbScale
 70
     0
300
1-1/2" = 1'-0"
140
1.5
141
12.0
290
     0
  0
SCALE
  5
66
102
{ACAD_REACTORS
330
47
102
}
330
47
100
AcDbScale
 70
     0
300
3" = 1'-0"
140
3.0
141
12.0
290
     0
  0
SCALE
  5
67
102
{ACAD_REACTORS
330
47
102
}
330
47
100
AcDbScale
 70
     0
300
6" = 1'-0"
140
6.0
141
12.0
290
     0
  0
SCALE
  5
68
102
{ACAD_REACTORS
330
47
102
}
330
47
100
AcDbScale
 70
     0
300
1'-0" = 1'-0"
140
12.0
141
12.0
290
     0
  0
ENDSEC
  0
EOF
